Savoy - Catrene

Versuri: George Topârceanu

Intro:

     E  E  E  E  E  E  E  E     Q    Q    S  S E  E  E   
E||--------------------------|--------------------------|
B||--------------------------|--------------------------|
G||--9--L--7h-9--7-----------|--------------------------|
D||-----------------7--9-----|--L---------7h-9----------|
A||--------------------------|-----------------7--------|
E||--------------------------|--------------------------|


     E  E  E  E  E  E  E  E     Q    Q    S  S E  E  E   
E||--------------------------|--------------------------|
B||--------------------------|--------------------------|
G||--9--L--7h-9--7-----------|--------------------------|
D||-----------------7--9-----|--L---------7h-9----------|
A||--------------------------|-----------------7--------|
E||--------------------------|--------------------------|

                           >                      >       >               
  Q    Q    Q    Q         Q    Q    Q    Q       Q    E  E  E  E  E  E   
-----------------------||----------------------|-------------------------|
-----------------------||--5----L--------------|-------------------------|
----------------------*||----------------------|--7-------4--L-----------|
----------------------*||----------------------|-------------------5--7--|
--L----L----L----------||----------------------|-------------------------|
-----------------------||----------------------|-------------------------|


                                                >       >               
  Q    Q    Q    Q       Q    Q    Q    Q       Q    E  Q    E  E   E   
----------------------|----------------------|-------------------------|
----------------------|----------------------|--5-------5-------7p--5--|
--4----L--------------|----------------------|-------------------------|
----------------------|----------------------|-------------------------|
----------------------|----------------------|-------------------------|
----------------------|----------------------|-------------------------|


                                                               >             
  Q    E  E  E  E  E  E     Q    Q    Q    Q       E  E  E  E  E   E  E  E   
-------------------------|----------------------|---------------------------|
-------------------------|----------------------|---------------------------|
--7-------4--L-----------|--4----L----L----L----|--------------4h--5--4-----|
-------------------5--7--|----------------------|------------------------7--|
-------------------------|----------------------|---------------------------|
-------------------------|----------------------|---------------------------|


  Q    Q    Q    Q       Q    Q    E  E  E  E     E  E  Q    Q    Q     
----------------------|------------------------|-----------------------|
----------------------|------------------------|-----------------------|
----------------------|------------5--5--7--5--|--4--------------------|
--7----L----L----L----|------------------------|-----5-----------------|
----------------------|------------------------|--------7----L----L----|
----------------------|------------------------|-----------------------|


  Q    Q    E   E  E  E     Q    Q    Q    Q       Q     Q     Q     Q     
-------------------------|----------------------|-------------------------|
-------------------------|----------------------|-------------------------|
------------4h--5--4-----|----------------------|-------10----12----10----|
----------------------7--|--7----L----L---------|-------------------------|
--L----------------------|----------------------|-------------------------|
-------------------------|----------------------|-------------------------|


  Q    Q    Q    Q              
----------------------|-------||
----------------------|-------||
--9----L----L---------|-------||
----------------------|-------||
----------------------|-------||
----------------------|-------||


Em
N-o să mai iubesc, zisese
Am
Biata-mi inimă naivă
D
Dar văzându-te pe tine
Am            Em
A căzut în recidivă

Em
Supărările iubirii
Am
Sunt ca ploile cu soare
   D                     B
Repezi, dar cu cât mai repezi
    F          Em
Cu atât mai trecătoare

C                 Em
Musafiri la mine-acasă
D                     G
Fără să-i poftesc vreodată
Am                  D
Am un şoarec, doi păienjeni
F                      B7
şi din când în când o fată

Em
La fereastra ta-mi zâmbiră
Am
Toate florile din glastră
   D                     B
Numai floarea cea mai dulce
    F          Em
A fugit de la fereastră

Em
Greu mi-i dragă fără tine
Am
şi te chem de-atâtea ori
D                  B7
Nu din zori şi până-n seară
F                    Em
Cât din seară până-n zori
6Ld5REUUAAAAAA1PBEDya2BDGnf5rYKeKnmYm4Cz
f4850052f534c8f819a428e13f57bfbc