Semnal M - La fereastra ta

                      
Track 1
     W                   W                   W                 
E||-------------------|-------------------|-------------------|
B||-------------------|-------------------|-------------------|
G||-------------------|-------------------|-------------------|
D||-------------------|-------------------|-------------------|
A||-------------------|-------------------|-------------------|
E||-------------------|-------------------|-------------------|


              3  3        3      3 3        3           3        3  
  H        E  E  E  S. S. T    S X E  S. S. E  S. S. S. E  S. S. T  
-----------------0--3--0--7-|--L-L----0--------0--3--0--7-----0----|
----------------------------|------8-----0-----------------8-----0-|
----------------------------|--------------------------------------|
--------------2-------------|---------------2----------------------|
----------------------------|--------------------------------------|
----------------------------|--------------------------------------|


    3 3     3           3        3            3           3        3        
  S X E  S. E  S. S. S. E  S. S. E  T    S S. E  S. S. S. E  S. S. E  S. T  
---------0--3--0--7-----0--------0--3-|--L-0--7-----0--------0--3--0--7----|
--L------------------8-----0----------|----------8-----0-----------------8-|
--------------------------------------|------------------------------------|
------2-----------------------2-------|-------------------2----------------|
--------------------------------------|------------------------------------|
--------------------------------------|------------------------------------|


    3           3        3                           3        3        |-3|  
  S E  S. S. S. E  S. S. E  S. S. T    T. X S. S. S. E  S. S. E  S. S. E  S  
----0--------0--3--0--7-----0-------|----------------5----------------------|
--L----0-----------------8-----0----|-------0--4--0-----4--0--------0--4--0-|
------------------------------------|-------------------------2-------------|
----------2-------------------------|---------------------------------------|
----------------------------------2-|--L--L----------------------2----------|
------------------------------------|---------------------------------------|


             3        3           |-3|            3        3           3     3  
  T. X S. S. E  S. S. E  S. S. S. E  S    T. X S. E  S. S. E  S. S. S. E  S. S  
-------5--------------0--3--0--7-----0-|--L--L-------0--3--0--7-----0--------0-|
--L--L----4--0--------------------8----|-------0-----------------8-----0-------|
----------------2----------------------|---------------------------------------|
-------------------2-------------------|----------2-----------------------2----|
---------------------------------------|---------------------------------------|
---------------------------------------|---------------------------------------|


       3        3           3        3    3          3        3        3        
  T. X E  S. S. E  S. S. S. E  S. S. S    S S. S. S. E  S. S. E  S. S. E  T. X  
--L--L-3--0--7-----0--------0--3--0--7-|--L----0--------0--3--0--7-----0-------|
----------------8-----0----------------|----8-----0-----------------8-----0--L-|
---------------------------------------|---------------------------------------|
-------------------------2-------------|-------------2-------------------------|
---------------------------------------|---------------------------------------|
---------------------------------------|---------------------------------------|


  3    3           3        3             |3|           3        3              
  S S. E  S. S. S. E  S. S. E  S. T. X    S E  S. S. S. E  S. S. E  S. S. T. X  
-------0--3--0--7-----0----------------|-------5-----------------------5-------|
--L----------------8-----0-----0--4--L-|--L-0-----4--0--------0--4--0-----4--L-|
---------------------------------------|----------------2----------------------|
----2----------------------------------|---------------------------------------|
----------------------------2----------|-------------------2-------------------|
---------------------------------------|---------------------------------------|


             3        3                           3        3     3         
  T S. S. S. E  S. S. E  S. S. S. T. X    T S. S. E  S. S. E  S. H         
-------------0--3--0--7-----0----------|----0--3--0--7-----0--------------|
--L-0--------------------8-----0-------|----------------8-----0--3--------|
-------2-------------------------------|-------------------------4--------|
----------2-----------------------2--L-|--L----------------------5--------|
---------------------------------------|----------------------------------|
---------------------------------------|----------------------------------|


                         3                   3               3              
  W                   S. X T H.           S. T    H        S X Q.     T. X  
-------------------|---------------------------|---------------5------L--L-|
--L----------------|--L--L---3------------L--L-|--L--------L-L-7------L--L-|
--L----------------|--L--L---4------------L--L-|--L--------L-L-7------L--L-|
--L----------------|--L--L---5------------L--L-|--L--------L-L-------------|
-------------------|---------------------------|---------------------------|
-------------------|---------------------------|---------------------------|


                      3                                   3            3  
  W                   X H.           E.  T. X    Q.     S X T H        T  
--L----------------|--------------------------|--------------------------|
--L----------------|----3------------L---L--L-|--L------L-----3--------L-|
--L----------------|----4------------L---L--L-|--L------L-----4--------L-|
-------------------|----5------------L---L--L-|--L------L-----5--------L-|
-------------------|--------------------------|--------------------------|
-------------------|--------------------------|--------------------------|


               |--3--|                                 3               3  
  H.           E  E  E     W                   Q    S. X T H        S. T  
------------------------|-------------------|--------------5--------L--L-|
--L------------L-----3--|--L----------------|--L----L--L---7--------L--L-|
--L------------L-----4--|--L----------------|--L----L--L---7--------L--L-|
--L------------L-----5--|--L----------------|--L----L--L-----------------|
------------------------|-------------------|----------------------------|
------------------------|-------------------|----------------------------|


                 3                                     3                     
  H.           S X E  T. X    W                   Q    X  H        E.  T. X  
--L------------L-L---------|-------------------|----------0--------L---L--L-|
--L------------L-L-0--L--L-|--L----------------|--L------12--------L---L--L-|
--L------------L-L-7--L--L-|--L----------------|--L------12--------L---L--L-|
-------------------5--L--L-|--L----------------|--L-------------------------|
---------------------------|-------------------|----------------------------|
---------------------------|-------------------|----------------------------|


               3         3                        3                  3   
  H        E.  X T  Q    T    W                   Q     H.           E   
--L--------L--------0----L-|--L----------------|--L-----0------------L--|
--L--------L-------12----L-|--L----------------|--L----12------------L--|
--L--------L-------12----L-|--L----------------|--L----12------------L--|
---------------------------|-------------------|------------------------|
---------------------------|-------------------|------------------------|
---------------------------|-------------------|------------------------|


              3            3                          3                        
  H        S. X T  Q    S. T    W                   S X  H.           E  T. X  
--L--------L--L----0----L--L-|--L----------------|--L-L--5------------L--L--L-|
--L--------L--L---12----L--L-|--L----------------|--L-L-10------------L--L--L-|
--L--------L--L---12----L--L-|--L----------------|--L-L-11------------L--L--L-|
-----------------------------|-------------------|------13------------L--L--L-|
-----------------------------|-------------------|------14------------L--L--L-|
-----------------------------|-------------------|----------------------------|


           3            3                     3    3  3                      
  H        X  Q.     S. T    H.           E.  X T  X  X    W                 
--L-----------0------L--L-|--L------------L---L----0----|-------------------|
--L----------12------L--L-|--L------------L---L------12-|--L----------------|
--L----------12------L--L-|--L------------L---L---12----|-------------------|
--L-----------------------|-----------------------------|-------------------|
--L-----------------------|-----------------------------|-------------------|
--------------------------|-----------------------------|-------------------|


                          3                    3     3                      
  Q.     T. X  H        S X    H.           S. T  E  X    W                 
---------------0--------L-L-|--L------------L--L--5--L-|--L----------------|
--L------L--L-12--------L-L-|--L------------L--L-10--L-|--L----------------|
--------------12--------L-L-|--L------------L--L-11--L-|--L----------------|
----------------------------|--------------------13--L-|--L----------------|
----------------------------|--------------------14--L-|--L----------------|
----------------------------|--------------------------|-------------------|


               3                                |3|                            
  Q    T. X T  W                   H.           T X E.  T    W                 
--L----L--L----0----------------|--L------------L---------|-------------------|
--L----L--L---12----------------|--L------------L-0-3---L-|--L----------------|
--L----L--L---12----------------|--L------------L-0-------|-------------------|
--L----L--L---------------------|-------------------------|-------------------|
--L----L--L---------------------|-------------------------|-------------------|
--------------------------------|-------------------------|-------------------|


  E.  T H.           T    H        E  T T Q    S    W                 
-----------------------|------------------5----L-|--L----------------|
--L---L-3------------L-|--L--------L--L---7----L-|--L----------------|
--------4------------L-|--L--------L--L---7----L-|--L----------------|
--------5------------L-|--L--------L--L----------|-------------------|
-----------------------|-------------------------|-------------------|
-----------------------|-------------------------|-------------------|


  E  H.           E     H        S Q.     S    W                 
--L------------------|----------------------|-------------------|
--L--3------------L--|--L--------L-3------L-|--L----------------|
--L--4------------L--|--L--------L-4------L-|--L----------------|
-----5------------L--|--L--------L-5------L-|--L----------------|
---------------------|----------------------|-------------------|
---------------------|----------------------|-------------------|


  T H.           E.  T    Q.     S. H        T    H.           E  T T S  
-----------------------|------------5--------L-|--L------------L--L-----|
----3------------L---L-|--L------L--7--------L-|--L------------L--L---0-|
----4------------L---L-|--L------L--7--------L-|--L------------L--L---7-|
----5------------L---L-|--L------L-------------|----------------------5-|
-----------------------|-----------------------|------------------------|
-----------------------|-----------------------|------------------------|


  W                   Q.      H        E     H.           S  E.   
-------------------|----------0--------L--|--L------------L--0---|
--L----------------|--L------12--------L--|--L------------L-12---|
--L----------------|--L------12--------L--|--L------------L-12---|
--L----------------|--L-------------------|----------------------|
-------------------|----------------------|----------------------|
-------------------|----------------------|----------------------|


  W                   Q    T  H        E.  T    H        E.  T  Q    T  
--L----------------|--L-------0--------L---L-|--L--------L---L--0----L-|
--L----------------|--L------12--------L---L-|--L--------L---L-12----L-|
--L----------------|--L------12--------L---L-|--L--------L---L-12----L-|
-------------------|-------------------------|-------------------------|
-------------------|-------------------------|-------------------------|
-------------------|-------------------------|-------------------------|


  W                   E  T T  H.           S    H        E   Q.      
--L----------------|--L--L----5------------L-|--L--------L---0------|
--L----------------|--L--L---10------------L-|--L--------L--12------|
--L----------------|--L--L---11------------L-|--L--------L--12------|
-------------------|---------13------------L-|--L--------L----------|
-------------------|---------14------------L-|--L--------L----------|
-------------------|-------------------------|----------------------|


  W                   S T  H.           E  T    H        T  Q.     S.  
--L----------------|--L----0------------L--L-|--L--------L--0------L--|
--L----------------|--L---12------------L--L-|--L--------L-12------L--|
--L----------------|--L---12------------L--L-|--L--------L-12------L--|
-------------------|-------------------------|------------------------|
-------------------|-------------------------|------------------------|
-------------------|-------------------------|------------------------|


  H.           E.  T  T    W                   Q.     T T  H        S  
--L------------L---L--5-|--L----------------|--L------L----0--------L-|
--L------------L---L-10-|--L----------------|--L------L---12--------L-|
--L------------L---L-11-|--L----------------|--L------L---12--------L-|
---------------------13-|--L----------------|--L------L---------------|
---------------------14-|--L----------------|--L------L---------------|
------------------------|-------------------|-------------------------|


                  3    3                               3                   
  H.           E  X S. T    W                   Q    S X H        E  T. X  
--L------------L---------|-------------------|----------------------------|
--L------------L----0--L-|--L----------------|--L----L-L-3--------L--L--L-|
--L------------L--0-7--L-|--L----------------|--L----L-L-4--------L--L--L-|
-------------------------|-------------------|-----------5--------L--L--L-|
-------------------------|-------------------|----------------------------|
-------------------------|-------------------|----------------------------|


               3       3                            3              3  
  H.           X T E.  T    W                   E.  S H.           T  
-------------------5---L-|--L----------------|--L---L----------------|
--L----------------7---L-|--L----------------|--L---L-3------------L-|
--L----------------7---L-|--L----------------|--L---L-4------------L-|
--L----------------------|-------------------|--------5------------L-|
-------------------------|-------------------|-----------------------|
-------------------------|-------------------|-----------------------|


  |--------3-------|                                  3                   3  
  W                H           W                   S. X T H.           S. T  
----------------------------|-------------------|---------------------------|
--L----------------3--------|--L----------------|--L--L---3------------L--L-|
--L----------------4--------|--L----------------|--L--L---4------------L--L-|
--L----------------5--------|--L----------------|--L--L---5------------L--L-|
----------------------------|-------------------|---------------------------|
----------------------------|-------------------|---------------------------|


             3                                    3                    3  
  H        S X Q.     T. X    W                   X T H.           E.  T  
---------------5------L--L-|--L----------------|-------------------------|
--L--------L-L-7------L--L-|--L----------------|------3------------L---L-|
--L--------L-L-7------L--L-|--L----------------|------4------------L---L-|
--L--------L-L-------------|-------------------|------5------------L---L-|
---------------------------|-------------------|-------------------------|
---------------------------|-------------------|-------------------------|


            3          3                 |--3--|                 3   3         
  Q.     S. X H        T    H.           E  E  E     H        E  X T H         
--------------7--------L-|--L------------L-----7--|--L--------L--L---7--------|
--L------L--L-8--------L-|--L------------L-----8--|--L--------L--L---9--------|
--L------L--L-9--------L-|--L------------L-----9--|--L--------L--L---9--------|
--L------L--L------------|------------------------|---------------------------|
-------------------------|------------------------|---------------------------|
-------------------------|------------------------|---------------------------|


         3             3                   3                              
  Q.     X H        S. T    H.           S X E  T. X    W                 
--L------L-0--------L--L-|--L------------L-L-0--L--L-|--L----------------|
--L------L---------------|---------------------------|-------------------|
--L------L-6--------L--L-|--L------------L-L-6--L--L-|--L----------------|
-----------7--------L--L-|--L------------L-L-7--L--L-|--L----------------|
-------------------------|---------------------------|-------------------|
-------------------------|---------------------------|-------------------|


       3                3                 3      3                      
  Q    X T H        E.  T    H        E.  S Q    T    W                 
--L--------7--------L---L-|--L--------L---L-0----L-|--L----------------|
-----------9--------L---L-|--L--------L---L--------|-------------------|
--L--------9--------L---L-|--L--------L---L-6----L-|--L----------------|
--L-----------------------|-----------------7----L-|--L----------------|
--------------------------|------------------------|-------------------|
--------------------------|------------------------|-------------------|


  3                                       3         3                      
  Q    T H.           T. X    H        E  X Q    S. T    W                 
--L------0------------L--L-|--L--------L----0----L--L-|--L----------------|
---------2------------L--L-|--L--------L----2----L--L-|--L----------------|
--L------2------------L--L-|--L--------L----2----L--L-|--L----------------|
--L------------------------|--------------------------|-------------------|
---------------------------|--------------------------|-------------------|
---------------------------|--------------------------|-------------------|


    3                                    3              
  S X H.           E  T. X    H        S X Q.     T. X  
--L-L-7------------L--L--L-|--L--------L---0------L--L-|
--L-L-9------------L--L--L-|--L--------L---------------|
--L-L-9------------L--L--L-|--L--------L---6------L--L-|
---------------------------|---------------7------L--L-|
---------------------------|---------------------------|
---------------------------|---------------------------|


                  3    3    3                                              
  H.           S. X E  T    S T  H.           E  T. X    W                 
--L------------L---------|----------------------------|-------------------|
--------------------0--L-|--L----2------------L--L--L-|--L----------------|
--L------------L----8--L-|--L----2------------L--L--L-|--L----------------|
--L------------L----6--L-|--L----6------------L--L--L-|--L----------------|
-------------------------|------11------------L--L--L-|--L----------------|
-------------------------|----------------------------|-------------------|


  3                        
  S H        Q    E  S X   
-------------------------||
--L----------------------||
--L----------------------||
--L----------------------||
--L----------------------||
-------------------------||


Duration Legend
---------------
W - whole
H - half
Q - quarter
E - 8th
S - 16th
T - 32nd
X - 64th
. - note dotted
|-n-|  - n-tuplets


Tablature Legend
----------------
L - tied note
x - dead note
g - grace note
(n) - ghost note
> - accentuded note
NH - natural harmonic
AH - artificial harmonic
TH - tapped harmonic
SH - semi harmonic
PH - pitch harmonic
h - hammer on
p - pull off
b - bend
br - bendRelease
pb - preBend
pbr - preBendRelease
brb - bendReleaseBend
\n/ - tremolo bar dip
\n - tremolo bar dive
-/n - tremolo bar Release up
/n\ - tremolo bar inverted dip
/n - tremolo bar return
-\n - tremolo bar Release down
S - shift slide
s - legato slide
/ -  slide into from below or out of upwards
\ -  slide into from above or out of downwards
~ - vibrato
W - wide vibrato
tr - trill
TP - tremolo picking
T - tapping
S - slap
P - pop
< - fade in
^ - brush up
v - brush down
  • Bogdan Alin
    12 iunie 2008 12:55
    aici este doar chitara 1... in gp sunt 3. incercati sa le combinati pe toate. adica cum se termina ciupitura de pe prima chitara, nu continuati tot cu ea, intrati cu a 2-a... si cum se termina pe a 2-a cantatio pe prima...
  • Bogdan Alin
    24 aprilie 2008 20:47
    genial. incep sa cred ca omu astai iuliu merca...
    5 din partea mea!
  • rasgeado
    24 aprilie 2008 19:18
    Super tare midi-ul!
6Ld5REUUAAAAAA1PBEDya2BDGnf5rYKeKnmYm4Cz
a0418d0e42899d7ffaece8e77e35e18f