Semnal M - Moara

Capo pe I

INTRO

Chitara I

e|--0--555--7--9-9--7h9--9--7--5|
B|------------------------------|
G|------------------------------|X2
D|------------------------------|
A|------------------------------|
E|------------------------------|


e|--5-5h7--77--5--2|--2-----------------------|
B|-----------------|----55--3-2-3--55--3-2-3--|
G|-----------------|--------------------------| 
D|-----------------|--------------------------|
A|-----------------|--------------------------|
E|-----------------|--------------------------|


Chitara II

e|----------------------------|
B|----------------------------|
G|----666--7--9--9--7h9--9-7-6| X2
D|--7-------------------------|
A|----------------------------|
E|----------------------------|

e|----------------|-----------------------------|
B|----------------|-----------------------------|
G|--6--6h7--77-6-4|--7--66--4--2--4--66--4--2--4| 
D|----------------|-----------------------------|
A|----------------|-----------------------------|
E|----------------|-----------------------------|


A
Ai măcinat ceruri şi-ai sfărâmat stele

şi-ai spart în palme pietre inele
Bm
Te-ai dus cu sângele serii pe ape
D                       A
Cu-atât mai departe, cu-atât mai aproape


A
Ai băut fulgere topite-n descântec

şi-ai tors cu-amurgul fuioare de cântec
Bm
Umbrită de frunze ca ochiul de geană
D                     A               E
Când arde aleanuri în piept de codană


     D                A
REF: Abia aţipeşti pe umeri de noapte
     F#m                    E
     şi zorii te cheamă din stelele coapte
     D                         A
     şi iarăşi te-aduni dintre ape şi vânt
     F#m             E            A 
     Să macini comoara acestui pământ

Se repeta INTRO

Când toaca bătea cu ţinte-nserarea
Haiducii-şi ciopleau din umbre cărarea
Strunindu-şi sirepii aprinşi în zăbale
Tăcuţi să se-ascundă sub şoaptele tale

şi-n hore de inimi cu vârfuri de spadă
Þeseau legământ cu fir de baladă
Doar malul de ape îl scutură-n ierbi
Să ardă sub lună în coarne de cerbi

     D                A
REF: Abia aţipeşti pe umeri de noapte
     F#m                    E
     şi zorii te cheamă din stelele coapte
     D                         A
     şi iarăşi te-aduni dintre ape şi vânt
     F#m             E            A 
     Să macini comoara acestui pământ

INTRO

REF
  • ghit razvan
    5 martie 2011 18:09
    @catalins: Merci mult! Si da, ai dreptate, e cu capo pe 1...am uitat sa trec acolo la inceput...dar voi modifica acum...merci :D
  • catalins
    4 martie 2011 19:11
    Buna tabulatura. Bravo! Originalul (cel putin varianta pe care o am eu) e cu capo pe 1 (ca fapt divers :) )
6Ld5REUUAAAAAA1PBEDya2BDGnf5rYKeKnmYm4Cz
475d83892f1ef7d7e2e7b521e4ad4cb7