Semnal M - Povesti la gura sobei

Intro:

                 A                              Dm        
E||--6--5--3---------|-----------|--3--------3-----|------|
B||-----------6--5---|-----------|-----6--5-----6--|------|
G||------------------|-----------|-----------------|------|
D||------------------|-----------|-----------------|------|
A||------------------|-----------|-----------------|------|
E||------------------|-----------|-----------------|------|


              A                                   Dm        
--6--5--3--------------|-----------|--6--5--3--------------|
-----------6--5--------|-----------|-----------5--3--------|
-----------------------|-----------|-----------------------|
-----------------------|-----------|-----------------------|
-----------------------|-----------|-----------------------|
-----------------------|-----------|-----------------------|


-----------------------||
--3s----15--------L----||
-----------------------||
-----------------------||
-----------------------||
-----------------------||


A
Nopţile de iarnă
                   Dm
Cu flori reci la ferestre
      A
Ni le-amintim prin vreme
              Dm
În haine de poveste
  D7   
Poveşti la gura sobei
                 Gm
Topind în iarna grea 
  A
Zăpada de pe inimi
  A7              Dm
Tristeţea mea şi-a ta

Florile din geamuri
Sclipesc fără de viaţă
şi mult prea des pe buze
Cuvintele ne-ngheaţă
Poveşti la gura sobei
Doar ele, rând pe rând
Mai pot să ne aducă
O primăvară-n gând

	 Bb    
	Nopţile sunt oarbe
                      Dm
	E frig şi ne doare
             Bb
	şi aşteptăm să cadă
                        A7
	O lacrimă din soare
          D7
	Poveşti la gura sobei
                         Gm
	Doar ele rând pe rând 
                       A7
	Mai pot să ne aducă
                      Dm
	O primăvară-n gând
	
	Nopţile sunt oarbe
	E frig şi ne doare
	Că aşteptăm să cadă
	O lacrimă din soare
	Poveşti la gura sobei
	Purtând speranţa lor
	Mai cheamă primăvara
	Când obosim de dor