Simplu - Sa zburam spre cer

  • (17 voturi)
  • Contribuție:  anonime
Intro + Versuri
E|--1-------3-1---------1--1--------||----------------------------------|
B|--1-----1------1------1--1---1----||----4-----6-4---------4-----------|
G|--1---1----------1------------1---||----5----5-----5----5------5------|
D|----------------------------------||----5---5-------5------------5----|
A|----------------------------------||----------------------------------|
E|----------------------------------||----------------------------------|  x2


(0:15)
E|----------------|
B|----------------|
G|----------------|
D|----------------|
A|----------------|
E|--3--2-0--------| Se de-a ici incepe sa caänte.
                    La versuri se cäntä la ghitarä tot cu intro-ul de mai sus.


Refren
E|----------------------------------------------------------------------------------|
B|----------------------------------------------------------------------------------|
G|----------------------------------------------------------------------------------|
D|--7-9-9-------10-9-7-----------------5-7-7----8-7-5-------------------------------|
A|-7----------------------------------5---------------------------7-5-4-----8-7-----|
E|----------------------------------------------------------------------------------|
Vreau sä mä pierd in ochi täi    Sä-ti cînt iubirea mea sa poi sä zburäm spre cer..

Si aicia sunt vreo sekundä souä o pauzä in care nu se mai cäntä, dupä care iarä se 
revine la refren.
E|-----------------|
B|-----------------|
G|-----------------|
D|-----------------|
A|-----------------|
E|--6-7-6-7-6-7-6--|

(2:23)
E|-----------------|
B|-----------------|
G|---9-------------| chestia asta este in loc de pian.
D|---9-------------|
A|-----------------|
E|-----------------|
6Ld5REUUAAAAAA1PBEDya2BDGnf5rYKeKnmYm4Cz
ff99fa62f61504b92a1b1d88becb4498