Ska-nk - Boxele, rotile

Toata piesa merge pe acordurile: G, C, Em, D
Acordajul e cu un semiton mai jos!

INTRO 1:

Chitara ritm:
Eb|-----------------------------------|-----------------------------------|
Bb|-------------5-------8-----------7-|------------5-------8-----------7--|
F#|-----4--------0-------9-----------5|-----4-------0--------9------------|
C#|--5---5---5------9----------7------|--5---5----5------9----------7-----|
G#|---5-----3-3----7-7-------5---5----|---5------3-3----7-7-------5---5---|
Eb|-3---------------------------------|-3---------------------------------|



Chitara solo:
Eb|--------------------------------------------------|
Bb|-8~--12-8-7-7--12-8-7-7--121212121010101088887-|
F#|-x---x--x-x-x--x--x-x-x--xxxxxxxx xxxxxxxx xxxx x-|
C#|-5~--9--6-5-5--9--6-5-5--999999997777777755554-|
G#|--------------------------------------------------|
Eb|--------------------------------------------------|

INTRO 2:

Chitara ritm:
     G   C   Em  D 
Eb|---------------------|
Bb|---------------------|
F#|------5---9---7------|
C#|--5---5---9---7------|
G#|--5---3---7---5------|
Eb|--3------------------|


Chitara solo:

Eb|------------------------------------------------7--------|
Bb|---87810878-------87810878--------87810878---878-10-8-10-|
F#|--7----------------------------9-----------7-------------|
C#|---------------10----------------------------------------|
G#|---------------------------------------------------------|
Eb|---------------------------------------------------------|


vERS:

Lead guitar:
Eb|------------------------------------------------------------|
Bb|------------------------------------------------------------|
F#|-----------------5555-4/5---9999-9-9------------------------|
C#|--555545---------5555-4/5---9999-9-9--12121212-------12^----|
G#|--555555---------3333-2/3---7777-7-7--12121212---12^--------|
Eb|--333333------------------------------10101010--------------|



Eb|-------------------------------------------------|
Bb|-------------------------------------------------|
F#|-----------------5555-4/5---9999-9-9-------------|
C#|--555545---------5555-4/5---9999-9-9--12---------|
G#|--555555---------3333-2/3---7777-7-7--12---------|
Eb|--333333------------------------------10---------|



BRIDGE:
Chitara ritm:

Eb|--333------333---777--555---|
Bb|--333------555---888--777---|
F#|--444------555---999--777---| x2
C#|--555------555---999--777---|
G#|--555------333---777--555---|
Eb|--333-----------------------|



Chitara solo:

Eb|--x332233-55-x3322-3-3-5-|
Bb|--x333333-77-x3333-3-3-7-|
F#|--x----------------------|
C#|-------------------------|
G#|-------------------------|
Eb|-------------------------|


REFREN:

Lead guitar:
Eb|--------------------------------|
Bb|--------------------------------|
F#|--------------555----999---777--|
C#|--555---------555----999---777--|
G#|--555---------333----777---555--|
Eb|--333----------------777---555--|

INTRO 2
VERS
BRIDGE:
REFREN 2:


SOLO:

CHITARA RITM:
Eb|-------------------------|
Bb|-------------------------|
F#|------5555--9999--7777---|
C#|-5555-5555--9999--7777---|
G#|-5555-3333--7777--5555---|
Eb|-3333--------------------|

Chitara solo:
Eb|------------------------------|
bb|-888-777-101010-121212-101010-|
F#|-xxx-xxx-xxxxx--xxxxx--xxxxxx-|
C#|-555-444-77777--88888--777777-|
G#|------------------------------|
Eb|------------------------------|

Dupa prima masura inceputul e pe CONTRA:
Chitara ritm:
Eb|------------------------------|
Bb|------------------------------|
F#|------5555--9999--7777--------|
C#|---55-5555--9999--7777--------|
G#|---55-3333--7777--5555--------|
Eb|---33-------------------------|

Chitara solo:
Eb|--------------------------------|
Bb|---888-777-101010-121212-101010-|
F#|---xxx-xxx-xxxxx--xxxxx--xxxxxx-|
C#|---555-444-77777--88888--777777-|
G#|--------------------------------|
Eb|--------------------------------|


BRIDGE 2 (Mainile in aer berile sus):

Eb-----------------------
Bb-8-8-8-8-8-8-8-8--7-7--
F#--7-7-7-7-7-7-7-7--7-7-

Eb------------------------------------------------------------
Bb-8888888887777777788888888------888888888777777-8-8-8-8-----
F#---------------------------77777------------------------7---



Ultimul refren:

Chitara ritm:
Eb|--------------------------------|
Bb|--------------------------------|
F#|--------------555----999---777--|
C#|--555---------555----999---777--|
G#|--555---------333----777---555--|
Eb|--333----------------777---555--|


Refren:

Chitara solo:
Eb-777-----777----777---------------
Bb-----878----878----878-101010-878-
F#----------------------------------


OUTRO 1:


Chitara ritm:
Eb|--------------------------------|
Bb|--------------------------------|
F#|--------------555----999---777--|
C#|--555---------555----999---777--|
G#|--555---------333----777---555--|
Eb|--333----------------777---555--|

Chitara solo:
Eb---------------------------------------------------------------------------------------------
Bb-------8888-10-12-101010-88888-8888888-10101010-77777----8888-10-12-101010--88888-8888888--7-
G#-------xxxx-xx-x---x-x-x-xxxxx-xxxxxxx--x--x-x--xxxxx----xxxx--x--x--x-x-x--xxxxx-xxxxxxx--x-
C#-------5555-7--9---7-7-7-55555-5555555--7-7-7-7-44444----5555--7--9--7-7-7--55555-5555555--4-

Stop brusc, apoi trecere pe: 

OUTRO 2:

Chitara ritm:
Eb|--------------------------------|
Bb|--------------------------------|
F#|--------------555----999---777--|
C#|--555---------555----999---777--|
G#|--555---------333----777---555--|
Eb|--333----------------777---555--|


Chitara solo:
Eb---------------------------------------------------------------------------------------------------------------------------------------------
Bb------------------------------------------------------------------------------------------------------------------8~78~----8-8-8-8-8-8-8----
F#--7777-1211-9999-11-12-11-1414141416/14-1414141412/14--7777-1211-9999-11-12-11-1414141416/14-1414141412/14--7~7~-----------------------
C#--xxxx--x-x--xxxx-x--x--x--xxxxxxxx x  x -xxxxxxxx-x--x---xxxx--x-x--xxxx-x--x--x--xxxxxxxx x  x -xxxxxxxx-x--x---5~5~---------------------5~
G#--5555-109--7777-9--10-9--1212121214/12-1212121210/12--5555-109--7777-9--10-9--1212121214/12-1212121210/12---------------------------5~
Eb-------------------------------------------------------------------------------------------------------------------------------------------3~
  • alecz93
    11 august 2013 02:13
    Geniala, merci :)
6Ld5REUUAAAAAA1PBEDya2BDGnf5rYKeKnmYm4Cz
3c53ef16a7a74c1443f59acf88a05419