Ska-nk - Noi cand ne intalnim

Piesa este in Eb tuning. Doar chitara ritm este prezentata aici.
Cu exceptia bridge-ului unde se canta clean, restul sunt distorsie si powerchords.
Intro:
Eb|------|--
Bb|------|--
Gb|--12--|--
Db|--x---|-- X26
Ab|--10--|--
Eb|------|--


Refren 1:
                            
Noi cand ne intalnim se face vara
                            
Caci vara ne-am vazut intaia oara
                 G             D
Si umplem pagini dintr-o carte goala
               A              C
Cu randuri din povestea ce ne leaga
                  G        D
Povestea-i despre noi
                  A        C
Povestea-i despre noi
                  G        D       A       C
Povestea-i despre noi da noi doi

Breakdown 1:

Eb|------|------|------|------|------|------|
Bb|------|------|------|------|------|------|
Gb|--12--|--14--|--14--|--12--|--16--|--14--| X2
Db|--x---|--x---|--x---|--x---|--x---|--x---|
Ab|--10--|--12--|--12--|--10--|--14--|--12--|
Eb|------|------|------|------|------|------|
     X4     X6     X2     x4     x3     x3
	            (rapid)
Strofa 1:

Eb|------------------|
Bb|------------------|
Gb|-11/12------------| X4
Db|--x/-x(sustain)---|
Ab|--9/10------------|
Eb|------------------|
Cu ochii luminosi
Cu vara-n par copilarosi
Ca doi adorm mereu cu capu-n nori

(palm mute)
      G               D
Sa fugim spuneam in soapta
     A            C
California ne asteapta
      G              D           A
Vom avea o plaja-ntreaga pentru noi
C
Noi doi

Refren 2:
                  G          D
Noi cand ne intalnim se face vara
                   A         C
Caci vara ne-am vazut intaia oara
                 G             D
Si umplem pagini dintr-o carte goala
               A              C
Cu randuri din povestea ce ne leaga
                  G        D
Povestea-i despre noi
                  A        C
Povestea-i despre noi
                  G        D       A       C
Povestea-i despre noi da noi doi

Breakdown 2:

Eb|------|----|------|
Bb|------|----|------|
Gb|--12--|----|--14--|
Db|--x---|----|--x---| X2
Ab|--10--|----|--12--|
Eb|------|----|------|
     X8    bas   x4

Bridge:	 
Sa fugim spuneam in soapta
Paja-ntreaga ne asteapta
Vara sigur nu va-ncepe fara noi
      C          D
Dimineata la fereastra
      G              Em
Va intra in lumea noastra
      C               D            G    
Soarele ce-a stat ascuns iar dupa nori

Refren 3/Outro:
             C    D
Noi cand ne intalnim
G                  Em
Timpul se opreste, cerul ne zambeste
C     D      G
Totul e senin
             C    D
Noi cand ne intalnim
G                  Em
Timpul se opreste, parca-i o poveste
C       D      G
In care noi traim