Ska-nk - Nu mai sta in spate

  • (1 voturi)
  • Contribuție:  Serjioo
  • Ultima actualizare: 14.10.2019
Intro Chitara Ritm
Eb|-------------------------------------------------
Bb|-12-12-12-12-12-12-12-12-13-13-13-15-15-15-13-13-
Gb|-------------------------------------------------
Db|-------------------------------------------------
Ab|-------------------------------------------------
Eb|-------------------------------------------------

Intro Chitara Solo
Eb|-----
Bb|-----
Gb|--5--
Db|--4--
Ab|--2--
Eb|-----

Refren Chitara Solo
Eb|--------------
Bb|--5-----------
Gb|--4--5--7--5--
Db|--2--5--7--5--
Ab|--2--3--5--3--
Eb|--------------


Refren Chitara Ritm
Eb|--------------
Bb|--------------
Gb|--9--9--5--7--
Db|--9--9--5--7--
Ab|--7--7--3--5--
Eb|--------------


Solo Chitara
Eb|----------------------------------------------------------------
Bb|----------------------------------13-13-------------------------
Gb|-10-12-10-10-13-12-12h13p12h13p12-------13-13-12-12-12h13p12-10-
Db|----------------------------------------------------------------
Ab|----------------------------------------------------------------
Eb|----------------------------------------------------------------


Chitara solo mai face ceva pe vers undeva pe freturile 9-12 corzile A, D si G dar nu imi dau seama.
6Ld5REUUAAAAAA1PBEDya2BDGnf5rYKeKnmYm4Cz
8618c23c61d70cd8ef4235c2da70ac7e