Smiley - Acasa

  • Contribuție:  SHUR
  • Ultima actualizare: 05.11.2013
 Progresia de acorduri a melodiei SMILEY ACASA


Chitara
******************************************************************

E |----------|-----0---||
B |--1--1----|--0--3---||
G |--2--0----|--0--2--o||
D |--2--2----|-----0--o||
A |--0--3----|--2------||
E |----------|--3------||


Bass
******************************************************************

E |----------------------------|---------------------------||
B |----------------------------|---------------------------||
G |----------------------------|--------------------------o||
D |----------------------------|--------------------------o||
A |--3--3--3--3--6--6--6--6----|---------------------------||
E |----------------------------|--6--6--6--6--1--1--1--1---||
6b5cd2d485f0c61db344d42f118ccbb3