Smiley - Am bani de dat

Intro:
 
               A#        D#m              A#             D#m                      
E:---------x--------------------------x-----------------------x-------|
B:---------x--------------------------x-----------------------x-------|
G:-----8---x----------------------8---x-------------------8---x-------|
D:---------x-------8-----8------------x------8------8---------x-------|
A:-6-------x------------------6-------x-----------------6-----x-------|
E:---------x----6-----6---------------x---6-----6-------------x-------|

      A#            D#m           A#            D#m                      
E:--------------------------x------------------------x-------|
B:--------------------------x------------------------x-------|
G:---------------------8----x--------------------8---x-------|
D:-------8-----8------------x------8------8----------x-------|
A:------------------6-------x------------------6-----x-------|
E:---6-------6--------------x---6-----6--------------x-------|


Acorduri folosite:

A#        D#m

A#        D#m


Am bani de dat
Am datorii la stat   x3 


Alex :

Oh no! Nu am bani in buzunar
N-am nici un leu macar
Si strig : "No tengo dinero, no tengo dinero!"
Yooo! Sunt doar un vagabond,
N-am nici un leu in cont
Si strig : "No tengo dinero, no tengo dinero!"

Smiley :

Si yo! Am plecat de-acasa ieri
Nu stiu ce vrei sa-mi ceri
Dar spun : "No tengo dinero, no tengo dinero!"
Stiu, si maine e la fel
Sufla vantu-n portofel
(Las-o ma!) No tengo dinero, no tengo dinero!
Banii zboara (x 4)
Am bani de dat
Am datorii la stat (x 8)
Alex :
E praf si-n seif si in stomac
Si nu am ce sa ma... (ba!) nanc
No tengo dinero, no tengo dinero!

Smiley :

Dar da, sunt roman in tara mea
Oficial mi-e bine-asa
Da' no tengo dinero, no tengo dinero!
Am bani de dat
Am datorii la stat (x 8)

Don Baxter :

Beau iar eu nu de ce ci din nou
Am bani de dat la stat numai mii de euro
Dar nu le dau nimic, aa, nu, nu vreu
N-am nimic trecut pa numele meu
Acu' nu c-as avea vreo' proprietate pe la mare
Am doar prafu' da pa toba mare
Care-mi suna poc-poc, poc-poc in cap
"Ai bani de dat, da' n-ai nimic de luat"
Asa c-o ard gen haiducilu' 7 cai
Prind fetele pa cal ca-n Rapirea din Serai
Nu le duc la palat, le duc la un prieten
Ii bag telenovede deci tre' sa faca m*** :D (The one)
Banii zboara (x 4)
Am bani de dat
Am datorii la stat (x 8)

Moga : 

Tengo dinero, mucho, mucho
Mucisimo la ciorap si la saltea cum face chucho
Mi-e lene sa-i numer ziua, ziua ca m-apuca noaptea
Si statu' nu doarme te face sa bagi mana-n sac si sa-i dai partea
Fiscul ne baga pe toti in sperieti cand bate la usa
Se prinde de tine si-ti vine sa-l arzi cu bricheta ca pe-o capusa
Ai bani de dat, Tamara nu-ti e tie matusa
Platesti impozit pe libertate dar stai intr-o cusca
N-au maniere, faci cum ti se cere
Dai tot ce ai in punga fara ca nimic sa ti se ofere
Clasa politica vrea sa mai fac-o remaniere
Iar tu bati ritmul da' manele-n calorifere vere
Pamflet pentr-un sistem defect
Iei credit ca sa-ti mai platesti un credit, nu-i corect
Va bateti joc iar noi va batem pe umar
Ar trebui sa fiti batuti de mici
Cu paru'... fara numar!
Am bani de dat
Am datoriï la stat (x 8)
6Ld5REUUAAAAAA1PBEDya2BDGnf5rYKeKnmYm4Cz
da3d615842d2eebb5cfd48ae16aab1f2