Smiley - Hello

  • (1 voturi)
  • Contribuție:  Teodumitru
  • Ultima actualizare: 02.08.2013
-------------------------------------------------------------------------------
			   Hello - Smiley
-------------------------------------------------------------------------------
Tabbed by: Teo Dumitru
E-mail:teodumitru@rocketmail.com

Tuning:Standard (eBGDAE)

Intro :

e|--------------10----------10-------------10-------------------------------|
B|----------10------10----------10------------10-----------------------|
G|------12--------------12----------12------------12-------------------------|
D|---------------------------------------------------------------------------|
A|--10------------------------------------------------------------------------|
E|---------------------------------------------------------------------------|


e|--------------10----------10-------------10-------------------------------|
B|----------10------10----------10------------10-----------------------|
G|------11--------------11----------11------------11-------------------------|
D|---------------------------------------------------------------------------|
A|--10--------------------------------------------------------------------------|
E|---------------------------------------------------------------------------|


e|--------------10----------10-------------10-------------------------------|
B|----------10------10----------10------------10-----------------------|
G|------12--------------12----------12------------12-------------------------|
D|---------------------------------------------------------------------------|
A|--------------------------------------------------------------------------|
E|--0-------------------------------------------------------------------------|


e|--------------3--------3------3-------------------------------------------------|
B|-----------4-----4-------4------4------------------------------------------------|
G|-------5-----------5-------5------5--------------------------------------------|
D|---------------------------------------------------------------------------|
A|---3------------------------------------------------------------------------|
E|---------------------------------------------------------------------------|

Verse 

e|-------------------10---------------------10----------------10-------------------|
B|------------10--------------------10-----------------10--------------------------|
G|--------12-----12-------------11-----11----------12----12------------------------------|
D|---------------------------------------------------------------------------|
A|----10---------------------10--------------------------------------------------|
E|-----------------------------------------------0----------------------------|

e|----------------3---3--------------------------------------------------------|
B|----------4---------4--------------------------------------------------------|
G|--------5---5-------5---------------------------------------------------------|
D|---------------------------------------------------------------------------|
A|----3---------------3--------------------------------------------------------|
E|---------------------------------------------------------------------------|
6Ld5REUUAAAAAA1PBEDya2BDGnf5rYKeKnmYm4Cz
5af00760d0703def6cbe69b371e405f9