Smiley - In lipsa mea (intro)

Cred ca asta e intro-ul corect :D

Chestia e sa tineti barre'urile pentru a suna cum trebuie


		Em(barre)
E:-------------------------------------------------|
B:--------------8p7~~-----------------8------------|
G:----------9---------9----------------------------| X2
D:-------9-----------------------9-----------------|
A:---7~-----------------------7--------------------|
E:-------------------------------------------------|
		Bm(barre)
E:-------------------------------------------------|
B:--------------3p2~~-----------------3------------|
G:----------4---------4----------------------------| X2
D:-------4-----------------------4-----------------|
A:---2~-----------------------2--------------------|
E:-------------------------------------------------|
6Ld5REUUAAAAAA1PBEDya2BDGnf5rYKeKnmYm4Cz
ec033b40b9310613f2a25d5d9ab2959b