Smiley - Nu deranjati

  • Contribuție:  SHUR
Progresia piesei Nu Deranjati - Smiley format gp5


Guitar 1
*******************************************

E |--5-------------------------|--0-------------------------|
B |--5-----------5-------------|--0-----------0-------------|
G |--6--------------6----------|--1--------------1----------|
D |--7-----------------7-------|--2-----------------2-------|
A |--7--------------------7----|-----------------------2----|
E |--5-------------------------|--0-------------------------|


--2-------------------------|--5------------------------||
--2-----------2-------------|--5-----------5------------||
--2--------------2----------|--7--------------7--------o||
--4-----------------4-------|--7-----------------7-----o||
-----------------------4----|--5--------------------5---||
--2-------------------------|---------------------------||


Guitar 2
*******************************************

E |-------|-------|-------|------||
B |--5----|--0----|--2----|--5---||
G |--6----|--1----|--2----|--7--o||
D |--7----|--2----|--4----|--7--o||
A |--7----|--2----|--4----|--5---||
E |--5----|--0----|--2----|------||



Bass
*******************************************


E |----------------|----------------|----------------|---------------||
B |----------------|----------------|----------------|---------------||
G |----------------|----------------|----------------|--------------o||
D |----------------|----------------|----------------|--------------o||
A |----------------|-----2-----2----|-----4-----4----|--5--0--5--0---||
E |--5--0--5--0----|--0-----0-------|--2-----2-------|---------------||
4bca7e80b2006297a2994918791ea06d