Smiley - Preocupat cu gura ta

  • (15 voturi)
  • Contribuție:  Lalu
Riff 1 (x2):
e-|-----6-----6-------6---------6---|
B-|-----4-----4-------4---------4---|
G-|-3-----3-5-----------------------|
D-|---------------5-------5-6-------|

Riff 2:
e-|---------------------------------|
B-|-----4-----4-------4---------4-4-|
G-|-3---3-3-5-3-------3---------3-3-|
D-|---------------5-------5-6-------|

e-|---------------------------------|
B-|-----------4-------4---------4-4-|
G-|-3-----3-5-3-------3---------3-3-|
D-|---------------5-------5-6-6-----|
  • just v
    31 iulie 2008 16:45
    E adevarat ca e buna , dar voi astepta acordurile p-u batai cu nerabdare!!
  • VictorOprea
    28 iulie 2008 02:45
    E foarte bine sigur, un 5 bine meritat :)
    Dar totushi am dori acordurile cantecului pentru batai :)
  • Mircea Georgescu
    27 iulie 2008 21:48
    Nice :D
6Ld5REUUAAAAAA1PBEDya2BDGnf5rYKeKnmYm4Cz
977a7ea60194aaa20cd3031adb0c2880