Spitalul de Urgență - Tam tam

  • (1 voturi)
  • Contribuție:  anonime
basul de intro (şi pe vers)

E||-------------------|--------------------|------------|
B||-------------------|--------------------|------------|
G||-------------------|------------0--2----|------------|
D||-----------0--2----|------3-------------|---0--------|
A||-----3-------------|---------3----------|------------|
E||--------3----------|--------------------|---------3--|

-----------------||
-----------------||
-----------------||
---------0--2----||
---3-------------||
------3----------||

         C
Nu mai ştiu dacă-i zi sau noapte
      Am
Sunt aici dar mă simt departe
        F
Nici nu pot să dorm 
      G              C
Dacă nu-mi dai un telefon

Nu mai ştiu dacă plec sau vin
Dacă-i soare sau dacă-i frig
Nici nu pot să dorm
Dacă nu-mi dai un telefon

	          Am
	Doar un telefon
              D
	Ca să pot să dorm
          G         F        D
	Viaţa e un fir de telefon

Traversez doar pe roşu strada
Nu mă calcă nicio maşină
Nici nu pot să mor 
Dacă nu-mi dai un telefon

Doctorul mi-a prescris reţeta
Să pun dragoste doar cu pipeta
Dar am supradozat 
şi-acum m-am intoxicat

Peste tot îţi văd chipul tău
şi respir doar parfumul tău
Nici nu pot să dorm 
Dacă nu-mi dai un telefon

Nu mai ştiu de când ai plecat
Zâmbetul l-ai uitat în pat
şi îl caut mereu
Ca să-l port când îmi este greu
6Ld5REUUAAAAAA1PBEDya2BDGnf5rYKeKnmYm4Cz
001f549124002a61b8d2d0f958a74d4b