Sport sângeros III - Cafea cu parfum de femeie

INCA UNA DIN FORMATIILE ROMANESTI SUBAPRECIATE, DESI FOARTE TALENTATE...

INTRO

    G5         D5        B5      C5
e|-------------------------------------|
B|-------------------------------------|
G|-----------------------4--------5----|
D|---55--------77--------4--------5----|
A|---55--------77--------2--------3----|
E|---33--------55----------------------|

Peste chitara se aude trompeta care poate fi adaptata pt chitara cam asa:
(O sa notez partea de trompeta aferenta acordurilor de mai sus...cu o chitara in loc de trompeta suna foarte ok)

e|--77-5-7------77-5-7---2L-33-2-33-33-2-3-|
B|-----------------------------------------|
G|-----------------------------------------|
D|-----------------------------------------|
A|-----------------------------------------|
E|-----------------------------------------|

Apoi chitara trece la un ritm de ska rapid pe aceleasi acorduri, dar cu bareuri complete.


G
Anii au trecut, ele au crescut,
        D                                   Bm
Au renuntat demult la bilute si fundite colorate,
                   C
Acum vor pixuri cu ambalaje parfumate.


CHITARA MERGE LA FEL: G, D, Bm, D IAR PARTEA DE TROMPETA CAM ASA:

e|--3L--33-5-77-5-7-10|-33-5-77-5-7--2-3-2-0-2-3--33-2-0-2-|
B|--------------------|------------------------------------|
G|--------------------|------------------------------------|
D|--------------------|------------------------------------|
A|--------------------|------------------------------------|
E|--------------------|------------------------------------|


G
Acum sunt mari, vor brate tari,
        D
Barbati frumosi si musculosi
            Bm
Si asta vor toate 
                    C
Ca sa se simta protejate 
G
De cei ca noi, neprofitori 
            D
ce vor doar sex la lumina lumanarii,
             Bm
Am stat,m-am bronzat, am meditat
       C
Si am aflat ca le vreau pe toate!


     G5   
REF: Da,chiar imi place
     D5           Bm               C
     Cafeaua cu parfum de femeie, de femeie!
     G5
     Chiar imi place
     D5           Bm               C
     Cafeaua cu parfum de femeie, de femeie!


G
Doar un sarut si doar atat,
          D                            Bm
Nimic mai mult, doar o cafea dulce sau amara,
                 C  
Instinctul ei de fata mare nu ma-nseala!


     G5   
REF: Da,chiar imi place
     D5           Bm               C
     Cafeaua cu parfum de femeie, de femeie!
     G5
     Chiar imi place
     D5           Bm               C
     Cafeaua cu parfum de femeie, de femeie!


G      D               Bm 
Nu imi pasa, plec de-acasa,
         C 
Marea te cheama la ea,
G     D         Bm         C 
Priponïta sta o barza pe o creasta,
     G
Doar ea!
6Ld5REUUAAAAAA1PBEDya2BDGnf5rYKeKnmYm4Cz
0365cdf7dea85e87532545ad49bceb2f