Sport sângeros III - Casa ta

INTRO: C, G, F, G, C

C
Ea este tanara, blonda si frumoasa
G
Si vad adeseori cum invita baieti in casa
F      G            C 
Si ies foarte fericiti

C
Vestea s-a imprastiat, toti baietii au aflat
G
Si de duc mereu la ea, toti c-un zambet arogant
F    G          C
Desi foarte multumiti


                 C           G           
Ref: Dar tare as vrea sa pot afla
             F         G    C
     Ce se intampla in casa ta
             C           G
     Tare as vrea sa pot afla 
             F         G    C  
     Ce se intampla in casa ta
     
C
Intr-o zi n-am rezistat, m-am spalat, m-am parfumat
G                                             F
Si-am plecat si eu la ea indemnat de barbatia mea
   G          C
Sa fac si eu ceva


C
Cand la usa am sunat, o voce m-a invitat
G
Sa intru si sa iau loc undeva pe...
   F          G           C 
Sa astept, sa navighez pe net

                 C           G           
Ref: Dar tare as vrea sa pot afla
             F         G    C
     Ce se intampla in casa ta
             C           G
     Tare as vrea sa pot afla 
             F         G    C  
     Ce se intampla in casa ta

SOLO:

e|-------------|-----------------------------|
B|-------------|-----------------------------|
G|-------------|-----------------------------|
D|----7-5------|-----------------7-5---------|
A|--------7-5--|----5-7---5-7--------7-5-----|
E|--8---------8|--8-----8------8---------8---|

e|-------------|-----------------------------|
B|-------------|-----------------------------|
G|-------------|-----------------------------|
D|----7-5------|-----------------7-5---------|
A|--------7-5--|----5-7---5-7------------3---|
E|--8---------8|--8-----8------8-----3-5-----|

                 C           G           
Ref: Dar tare as vrea sa pot afla
             F         G    C
     Ce se intampla in casa ta
             C           G
     Tare as vrea sa pot afla 
             F         G    C  
     Ce se intampla in casa ta
6Ld5REUUAAAAAA1PBEDya2BDGnf5rYKeKnmYm4Cz
9cce96b2fc50e6c0b4b3ad45681eb865