Sport sângeros III - Manelita (bass)

  • (2 voturi)
  • Contribuție:  blugirupti
  • Ultima actualizare: 19.09.2010
Artist : Sport Sangeros III
Titlu  : Manelita (Bass)
Autor  : Alecs


G|-----------------------4--7-5--------|
D|--------------2--5--3-----------5-2--|
A|-----2--5--3-------------------------|
E|--3----------------------------------|


G|-----------------------4--7-5-4-5----|
D|--------------2--5--3----------------|
A|-----2--5--3-------------------------|
E|--3----------------------------------|
7cd76725e893a681ea816ffb72baf9d4