Ștefan Bănică Junior - Ce e dragostea

  • (2 voturi)
  • Contribuție:  sammy81
  • Ultima actualizare: 03.06.2013
Acorduri:

    E7        D9      D5     C5       Am    Fsus4    Dm7
E|---x---|----x---|---5---|---3----|--5---|--1----|--5----|
B|---5---|----5---|---5---|---3----|--5---|--1----|--6----|
G|---7---|----5---|---7---|---5----|--5---|--3----|--5----|
D|---6---|----4---|---7---|---5----|--7---|--3----|--7----|
A|---7---|----5---|---5---|---3----|--7---|--x----|--5----|
E|---x---|----x---|---5---|---3----|--5---|--x----|--5----|




                         Am 
Doamne, spune-mi ce-am gresit
E7               C             D9
Ce n-a mers, ce-a lipsit intre noi
              F              G#
Abia acum am inteles ce e dragostea
            C
Cand ai plecat din viata mea
 

E:------------3-----------------------------------------------|
B:------3/5-------53----1---------1--------------------------|
G:---------------------------0h2------------------------------|
D:------------------------------------------------------------|
A:------------------------------------------------------------|
E:------------------------------------------------------------|

Marius Moga

 D5   
Ai plecat si ai luat sufletul din mine, da! 

Ai uitat sa iei si amintirile cu tine, pa! 
     C5
Din partea mea poti sa iei tot, tot, tot

Dar de ziua mea te vreau pe tine in loc de tort
    D5
Si poate nu mai am cuvinte sa spun ce rau imi pare

Dar stiu ca a fost bine cu tine, acum mi-a dat teroare!
   C5
E soare, dar eu nu-l vad, si ma doare 
                         Fsus4 C5
Ca te-am iubit din ziua-n care…


Pasaj Stefan Banica Jr.:

                        Dm7
Din ziua in care te-am vazut
 G                C5
Am stiut de la inceput
                  Dm7
Ca esti jumatatea mea
 G                  C5
Ca a fost scris sa fie asa

Refren:

                         Am 
Doamne, spune-mi ce-am gresit
E7               C              D9
Ce n-a mers, ce-a lipsit intre noi
              F              G#
Abia acum am inteles ce e dragostea
            C            G#   C
Cand ai plecat din viata mea


Pasaj alternativ:

    D5     G        C5
E greu sa vezi, cum tot ce ai iubit,
    D5      E7
A ars si-n loc,
     Am    C   D9      D5
In suflet s-a ivit un gol
   G     C5   Fsus4  C5
Ce gol, imens!
95df129e2d86be63ea67d77291b08025
6Ld5REUUAAAAAA1PBEDya2BDGnf5rYKeKnmYm4Cz