Ștefan Bănică Junior - Iubeste-o sincer

  • Contribuție:  adi_io1981
  • Ultima actualizare: 29.01.2011
Stefan Banica Jr. - Iubeste-o sincer 

Solo:
e|-------------------------------------------------------------------|
B|-------------------------------------------------------------------|
G|-------------------------------------------------------------------|
D|-----------1-2-1------------4-2-1----------1-2-1-------------------|
A|-2-2-2-4-------2-4---4-4---------2-2-2-4--------2-4-2-0-2----------|
E|-------------------------------------------------------------------|


e|-------------------------------------------------------------------|
B|-------------------------------------------------------------------|
G|-----------------------------------------1-------------------------|
D|------------1-2-1------------4-2-1-------4-2-----------------------|
A|---2-2-2-4-------2-4---4-4--------2---------2-4-2----------=-------|
E|----------------------------------------------------------4-2-0----|




intro:  E / A / E
	E / A / E
	
   E          A            E   A E
Cineva te ajuta in tot ce faci
   E                A            E   A E
Te asculta chiar si atunci cand taci
   E             F#m       B7  A E
Te accept asa cum esti, iar tu stii
   E          F#m  B7    C E
Fara acel cineva nu poti trai


REfren

          B            A         E      A E
Iubeste-o sincer, doar atata ea iti cere
    E      B            A         E      A E
Fa-o sa simta ce inseamna in viata ta
    E             F#m      B7         A           E
Si iti va da mult mai mult decat te-astepti sa primesti
    E            F#m      B7     C    D E
Si atunci ai sa inveti cum s-o iubesti.


Solo:
e|-------------------------------------------------------------------|
B|-------------------------------------------------------------------|
G|-------------------------------------------------------------------|
D|-----------1-2-1------------4-2-1----------1-2-1-------------------|
A|-2-2-2-4-------2-4---4-4---------2-2-2-4--------2-4-2-0-2----------|
E|-------------------------------------------------------------------|


e|-------------------------------------------------------------------|
B|-------------------------------------------------------------------|
G|-----------------------------------------1-------------------------|
D|------------1-2-1------------4-2-1-------4-2-----------------------|
A|---2-2-2-4-------2-4---4-4--------2---------2-4-2----------=-------|
E|----------------------------------------------------------4-2-0----|


Nu conteaza cate flori i-aduci

Daca toate vorbele-ti sunt dulci

Conteaza sa-ntelegi ca cineva 

Nu vrea decat sa-i dai dragostea ta 




Iubeste-o sincer, doar atata ea iti cere
Fa-o sa simta ce inseamna in viata ta
Si iti va da mult mai mult decat te-astepti sa primesti
Si atunci ai sa inveti cum s-o iubesti



Solo:
e|-------------------------------------------------------------------|
B|-------------------------------------------------------------------|
G|-------------------------------------------------------------------|
D|-----------1-2-1------------4-2-1----------1-2-1-------------------|
A|-2-2-2-4-------2-4---4-4---------2-2-2-4--------2-4-2-0-2----------|
E|-------------------------------------------------------------------|


e|-------------------------------------------------------------------|
B|-------------------------------------------------------------------|
G|-----------------------------------------1-------------------------|
D|------------1-2-1------------4-2-1-------4-2-----------------------|
A|---2-2-2-4-------2-4---4-4--------2---------2-4-2----------=-------|
E|----------------------------------------------------------4-2-0----|


C       F       Bb      F    Bb F
     Ai nevoie uneori sa fii
	  F         Bb       F   Bb F
     Singur tu cu tine si sa stii
          F      Gm     C       Bb    F
     Ca este cineva care te asteapta mereu
          F      Gm         C     C#     F
     Sta langa tine atunci cand ti-e mai greu


             C           Bb        F     Bb F
Iubeste-o sincer, doar atata ea iti cere
   F          C          Bb        F     Bb F
Fa-o sa simta ce inseamna in viata ta
   F           Gm      C           Bb         F
Si iti va da mult mai mult decat te-astepti sa primesti
   F            Gm        C   c# D#   F
Si atunci ai sa inveti cum s-o iubesti /x 2

c# D#   F



Solo:                                                  F
e|--------------------------------------7-----5----3---1-----------------------------|
B|-------------------------------------7----6-----5----1-----------------------------|
G|------------------------------2-0---8---5-----5------2-----------------------------|
D|--------2-3-2---------5-3-2--------------------------3-----------------------------|
A|3-3-3-5-------3-5-5-5-------3------------------------3-----------------------------|
E|-----------------------------------------------------1-----------------------------|
  • ROMEO
    6 ianuarie 2012 20:41
    MERSI MULT..................
  • adi_io1981
    10 februarie 2011 20:16
    http://webcache.googleusercontent.com/search?q=cache:QsCYP0u0VWQJ:www.parinti.com/Rata-contentpid-2167.html+VRIAU+SI+EU+O+RATA+SAMI+FIE+SOATA&cd=2&hl=ro&ct=clnk&gl=ro&source=www.google.ro
  • ROMEO
    6 februarie 2011 18:46
    de unde pot lua versurile si acordurile la cint: "VRIAU SI EU O RATA SAMI FIE SOATA..."?
  • ROMEO
    6 februarie 2011 18:44
    ACUM E BINE .EU TO SUNT AMATOR DAR AM VAZUT CA sol NU TREBUIE.NUMAI O DATA.
  • adi_io1981
    29 ianuarie 2011 18:59
    SUNT CONVINS ... DOAR SUNT UN AMATOR. LE ACCEPT SI POATE ASA IESE MELODIA CAT MAI APROAPE DE ORIGINAL. AM MODIFICAT UNDE MI-AM DAT SEAMA ..CUM E?
df68762119ecc6c12827a09323d4277d