Ștefan Bănică Junior - Pretty Woman

  • (11 voturi)
  • Contribuție:  Sonic Rider
O melodie superba, compusa de Roy Orbison si Bill Dees in 1964, melodie 
cu care Stefan Banica Jr. iesea, de obicei, la bis in concertele de Craciun.

Jos – lovirea corzilor dinspre E gros spre E subtire
Sus - lovirea corzilor dinspre E subtire spre E gros
E7 de la strofe este facultativ

INTRO
RIFF 1 - 2X
1---------------------------------------------
2---------------------------------------------        2 x (de doua ori)
3---------------------------------------------
4------------0--------------------------------        
5---------2-----------------------------------
6--0-0-4--------------------------------------

RIFF 2 - 4x
1---------------------------------------------
2---------------------------------------------        4 x (de patru ori)
3---------------------------------------------
4------------0--4-2-0-------------------------        
5---------2-----------------------------------
6--0-0-4--------------------------------------

Strofa 1

A             F#m                         jos jossus susjos   
Pretty woman, walking down the street                  
A             F#m                         jos jossus susjos             
Pretty woman, the kind I like to meet                     
D                                         jos jossus susjossus
Pretty woman                                                          
E                                         jos jossus susjossus
I don't believe you, you're not the truth                  
E                           (E7)          jos jossus susjossus          
No one could look as good as you          Mercy     

SOLO
RIFF 2 – 4X 
1---------------------------------------------
2---------------------------------------------        4 x (de patru ori)
3---------------------------------------------
4------------0--4-2-0-------------------------        
5---------2-----------------------------------
6--0-0-4--------------------------------------

Strofa 2

A             F#m
Pretty woman, won't you pardon me
A             F#m
Pretty woman, I couldn't help see
D
Pretty woman
E
That you look lovely as can be
E                       (E7)
Are you lonely just like me                Wow


Bridge 

Dm            G                            jos jossus susjos …
Pretty woman, stop a while                 
C             Am
Pretty woman, talk a while
Dm            G               C  A7
Pretty woman, gave your smile to me
Dm            G
Pretty woman, yeah yeah yeah
C             Am
Pretty woman, look my way
Dm            G               C    A7
Pretty woman, say you'll stay with me
 
Aici cate o singura bataie arpegiata in jos pe F#m si E, dupa care se reia 
bataia obisnuita:

F#m                               E
'Cause I need you, I'll treat you right 
A               F#m           E          jos jossus susjos …
   Come with me baby, be mine tonight    (crescendo vocal pe “to night”)
       A     \      doua batai scurte pe A cu stop si acesta-i finalul 
Pretty woman, 

Sau se mai poate canta si partea finala a melodiei, dar fara percutie parca
nu prea are farmec :)
Asa ca daca doriti sa continuati…

RIFF 2 – 4X

Strofa 3 scurta

A             F#m
Pretty woman, don't walk on by
A             F#m
Pretty woman, don't make me cry
D
Pretty woman
E                E7
Don't walk away, hey

Final (coda)

E
OK... if that's the way it must be, OK
I guess I'll go on home, it's late
There'll be tomorrow night, but wait
What do I see

RIFF 1 - 2X

RIFF 2 - 8X
	
Is she walking back to me?
Yes, she's walking back to me
	       A\\                doua batai scurte cu stop si final
Oh, oh, pretty woman

Spor la cantat si numai bine:)
aa7140898e9af688ea9b6ccba21b1540
6Ld5REUUAAAAAA1PBEDya2BDGnf5rYKeKnmYm4Cz