Ștefan Bănică Junior - Te iubesc, femeie

E6              B7   
e|---------0-----------------------
B|------------2------------0-------
G|------1---------------------2----
D|----------------------1----------
A|-----------------2---------------
E|-0-------------------------------
 
   C7              B7
e|-3---x---3---x---2---x---2---x---
B|-5---x---5---x---4---x---4---x---
G|-3---x---3---x---2---x---2---x---
D|-5---x---5---x---4---x---4---x---
A|-3---x---3---x---2---x---2---x--- 
E|-3---x---3---x---2---x---2---x---
 
 E6                         B7           
 Nu stiu ce-a fost in capul meu atunci
 E6                        B7                    
 Te-am luat de soata ca sa nu mai plangi
 E6                      B7
 N-aveai nici zestre cum era firesc
 C7             B7  
 Cu toate astea te iubesc
 E6                   B7    
 Femeie... 
'Era bine totusi daca aduceai si tu ceva.'

M-ai pus sa-ti cant spre seara sub balcon
Sa-nvat balade la acordeon
Vecinii tai ma-njurau in exces
Cu toate astea te iubesc, femeie (femeie).
'Puteam sa le zic si eu cateva.'

Prerefren:
O vreau asa cum este ea
Sunt norocos ca e a mea.


'E, nu te umfla in pene ca n-am zis io
Asa e textul.'

II:
Ai vrea s-aveam vreo 4-5 copii
Cu ce-o sa-i crestem numai tu oi stii
Ma pui la treaba pana obosesc
Cu toate astea te iubesc, femeie (femeie).
'Ce vrei, am si eu tainingul meu.'
Tu vrei sa prindem nunta de argint
Pe mine ma ia spaima, nu te mint
Un sfert de secol o sa-nnebunesc
Cu toate astea te iubesc, femeie (femeie).
'Doamne, 25 de ani !'

Prerefren:..

'Ti-am spus, nu te mai umpfa in pene
Asa e cantecul.'
'Acesta e fost o trompeta.'
'Aceasta nu stiu ce-a fost.'

Prerefren:..

'Nu te umfla in .., dar nici nu ma mai obosesc sa-ti spun.'

III:
Iar cand se intampla sa imi fie rau
Esti langa mine cu tot sufletul tau
Imi dai curaj, m-ajuti sa reusesc
Si uite de-asta te iubesc femeie, (femeie).
  • underscore
    2 august 2011 12:39
    nu prea suna cu C-ul ala acolo. ar fi mai bun un A
6Ld5REUUAAAAAA1PBEDya2BDGnf5rYKeKnmYm4Cz
fd62916ce5f624243e11f331b659c2de