Ștefan Cenusă - O stea

O stea prin ceruri o vad ca trece
Si eu un nume i-am pus din zbor	
Numele unei inimi rece	
Fara fior.

Ea nevazuta acum se stinge	
Nimeni in zboru-I nu-a urmarit	
Numai un ochi singur o plange
Caci o a iubit.

Stiti de ce stelei i-am dat un nume
Numele unui suflet ratacit
Ce-acuma palid uitat de nume	
A imbatranit.

Pentru ca ochiul ce lacrimeaza
Dup-acea steaua care s-a stins
Este-al meu suflet ce lacrimeaza 
E ochiul meu stins.


E||----0--0----0--0---|-0--0----0--0----0-|-0----0--0----0---0|
B||---4-4--4--4-4--4--|2-2--2--2-2--2--4-4|--4--4-4--4--2-2-2-|
G||--4---4---4---4---4|---4---4---4---4---|4---4---4---4---4--|
D||-------------------|-------------------|-------------------|
A||-----------------4-|------4-------2----|---2-------0-------|
E||-0-------0---------|-------------------|-------------------|

E||--0----0--0--------|-------------------|-------------------|
B||2--2--2-2--2-------|-------------------|-------------------|
G||-4---4---4---etc---|-------------------|-------------------|
D||-------------------|-------------------|-------------------|
A||----0--------------|-------------------|-------------------|
E||-------------------|-------------------|-------------------|


*pentru fiecare vers cate un acord cu piticato...e usor good luck