Talisman - Numai Una (Solo)

  • Contribuție:  LPU00
  • Ultima actualizare: 10.02.2012
d#-----------------------------------------------------------------------------------------
a#-----------------------------------------------------------------------------------------
f#-----------------------------------------------------------------------------------------
c#-8-10-12-13---15---15p17h15---17-15-13-12-10---12p10-----------10---12p10----------------
g#-------------------------------------------------------13--------------------13-12-10----
d#-----------------------------------------------------------------------------------------

--------------------------------------------------------------------------
----------------------------------------------------------------------------
------------------------------------------------------------------------
------------------8-10-12---12b-------12-15-12-15-16-12--------
---8-10-12-------------------------13----------------------------
-------------------------------------------------------------------------



------------------------------------------------------------------
-----------------------------------------------------------------
--------------------------------------------------------------
-------------12-16-17---20-19---20h19---17-------------
--15-12----------------------------------------------------------
-------------------------------------------------------------------
8eae29098a2b0ec38fc5ca87058dd0d3
6Ld5REUUAAAAAA1PBEDya2BDGnf5rYKeKnmYm4Cz