Talisman - Singur

  • (43 voturi)
  • Contribuție:  anonim120
intro

e|------10-9-10-----10-9-10-9-7--9-7---10-9-8-9------|
B|--5/7-----------7-----------------------------10---|
G|-------------------------------------------------9-|
D|---------------------------------------------------|
A|---------------------------------------------------|
E|---------------------------------------------------|


e|--7\-5--------------------9-12-10h12p10-----|
B|--8\-7--8-8\-7-7--------11--------------12-|
G|--------9-9\-7-7------11--------------------|
D|------------------9/11-----------------------|
A|---------------------------------------------|
E|---------------------------------------------|


  Bm   
   O vad tremurand cu ochii-nchisi
                                    A
   Cu poze in jur genunchii stransi
                                   Bm
   Slabita si trista, cearcane-adanci
  Bm
   Si vrea sa-i promit ca n-o sa uit
                           A
   Imagini si locuri din trecut
                                Bm
   Si visele-n care, noi am crezut

          G             Bm      
Bridge :  Sunt nopti intregi cand plang
                 D                  Em
             S-adorm cu tine-n gand
                Em
             Plecata esti pe veci
                 F#
             Departe-n umbre reci

        D   A    Em           D
Ref :  Singur, atat de singur
       Bm           G                D         A
       Simt dureri pe care nu mai pot sa le-ndur
        D   A      Em           Bm
       Lacrimi, nopti in lacrimi
             D      A        Bm
       Si inima mea, singur
 
    Si sta in genunchi la piept tinand
    O veche scrisoare si plangand
    Imi spune prin lacrimi, ce mult i-a placut
    Ma roaga sa jur ca n-am mintit
    In tot ce i-am scris si i-am soptit
    Ca pleaca cu gandul, ca noi ne-am iubit
 
Bridge:
Ref:
  • Nacho
    27 martie 2020 16:58
    La intro este
    10-9-10-9-7--9-7---10-9-7-9
    în loc de
    10-9-10-9-7--9-7---10-9-8-9
  • cipihendrix
    1 ianuarie 2017 18:46
    Eu folosesc JJSSJJ
  • bugsbunny
    24 noiembrie 2011 11:51
    ar putea cineva sa imi dea si mie o idee de ciupire, bataie cv:-s.....? va rog
6Ld5REUUAAAAAA1PBEDya2BDGnf5rYKeKnmYm4Cz
5cdd09cab02a7dbf33fef9f4791c47a0