Taxi - Cineva, inaintea ta

Intro:

    D           Gm6          Em7          A
E||--------2---------------|------------------------|--------------------|
B||-----3-------------3----|--------3----------2----|-----2--3----5------|
G||----------------3-------|-----0----------2-------|--2-----------------|
D||--0---------------------|--2----------2----------|--------------------|
A||-------------5----------|------------------------|--------------------|
E||------------------------|------------------------|--------------------|


   D                          Gm6                     Em7    A
-----2-----2--0----5----|--0h-2-0----L--------------|--------------------0-|
--------3---------------|-------3----L--------3--5--|--3-------2----0s-2---|
------------------------|-------0----L------3-------|--0-------2-----------|
-----0------------------|-----------------5---------|--2-------2-----------|
------------------------|---------------------------|--2-------------------|
------------------------|---------------------------|----------------------|

  Em7          A               Em      A            D
-------------------------|-------------2----0----|--2----L-----------------|
--3-----3s--5--2----2----|-----0-------2---------|--3----L----3--3--5s--7--|
--0--4---------2----2----|-----0-------2---------|--2----L-----------------|
-------------------------|-----2-------2---------|--0----L-----------------|
--2------------0---------|-----------------------|-------------------------|
-------------------------|-----------------------|-------------------------|

  Gm             A              D                       Gm       Em7     A
--3--L--------3--0--------|--0--2----L---------------|--3-----3--0-------0-|
-----------3-----------2--|-----3----L--3--3--5s--7--|-----3-----3-------2-|
--------3-----------2-----|--------------------------|-------------------2-|
--5-----------------------|-----0--------------------|--5--------2---------|
-----------------0--------|--------------------------|-----------2---------|
--------------------------|--------------------------|---------------------|

  D
--2----L--------------|-----||
--3----L--------------|-----||
----------------------|-----||
--0----L--------------|-----||
----------------------|-----||
----------------------|-----||


D       Gm6
N-ai cum 
         Em7      A   D  
Să te prefaci că nu exist
      D Gm6
N-ai cum 
    A                  
Să spui că vii şi să nu mai vii
     D
Niciodată, nu, nu

     D Gm6
N-ai cum
    Em7        A   D
Să uiţi că e ziua mea
  Gm            D
Cineva înaintea ta
     Em7          A        D
Era expertă în aşa ceva

	Refren:
                    Em7 A  D
	Aşa că n-ai cum să mă răneşti
           Em7 A    D        A
	Cineva a făcut asta deja
                 Em7        A         D
	Înaintea ta, n-ai cum să mă răneşti
                Gm6   Em7
	Dar ai putea-a-a-a
            A
	În schimb
            D
	Să mă iubeşti

N-ai cum
Să mă laşi singur de sărbători
N-ai cum
Să nu m-asculţi şi să nu-mi vorbeşti o zi întreagă, nu, nu

N-ai cum 
Să te joci cu viaţa mea
Cineva înaintea ta
Era expertă în aşa ceva

	Refren.

D:   x00232
A:   002220
Gm:  355333
Gm6: xx5330
Em7: 022030
  • yellowman
    28 decembrie 2010 21:54
    destul de greu de cantat...dar totusi o melodie superba...
  • berarpaul
    20 aprilie 2008 00:17
    Una dintre piesele mele preferate :)