Taxi - Strada mea c-un singur bec (ciupita)

  • (3 voturi)
  • Contribuție:  pradan
  • Ultima actualizare: 14.09.2012
Intro:
         D        D        D         D        D        D        D         D
e--------2--------2--------2---------2--------2--------2--------2---------2-----
B--------3--------3--------3---------3--------3--------3--------3---------3-----
G--------2--------2--------2---------2--------3--------3--------3---------3-----
D----0---x--------x----0---x---------x----0---x--------x----0---x---------x----0
A--------x----0---x--------x----0----x--------x----0---x--------x----0----x-----
E--------x--------x--------x---------x--------x--------x--------x---------x-----


Vers:
Tara-i frumoasa, d-aia vrem sa vina stra-      inii sa o vada
              D        D        D         D         G        G        G        G
     e--------2--------2--------2---------2---------2--------2--------2--------2
     B--------3--------3--------3---------3---------2--------2--------2--------2
     G--------2--------2--------2---------2---------x--------x--------x--------x
     D----0---x--------x----0---x---------x---------x--------x--------x--------x
     A--------x----0---x--------x----0----x---------2----2---2--------2----2---2
     E--------x--------x--------x---------x----3----3--------3----3---3--------3

Sa se plimbe-n lung si-n lat pe… e-       ra sa zic auto-    strada.
         A        A        A         A         G        G        D        D
e--------0--------0--------0---------0---------2--------2--------2--------2
B--------3--------3--------3---------3---------2--------2--------3--------3
G--------3--------3--------3---------3---------x--------x--------2--------2
D--------3--------3--------3---------3---------x--------x----0---0--------x
A----0---x--------x----0---x---------x---------2----2---2--------x----0---x
E--------x----0---x--------x----0----x----3----3--------3--------x--------x


Refren:
E tara Mea, e blocu’ meu, e strada          mea cu-n singur bec,
           D        D        D         D         A        A        A        A
  e--------2--------2--------2---------2---------0--------0--------0--------0
  B--------3--------3--------3---------3---------3--------3--------3--------3
  G--------2--------2--------2---------2---------3--------3--------3--------3
  D----0---x--------x----0---x---------x---------3--------3--------3--------3
  A--------x----0---x--------x----0----x----0----x--------x----0---x--------x
  E--------x--------x--------x---------x---------x----0---x--------x----0---x

E   locu-n care viata-ntreaga             vreau sa îmi pe-   trec.
         Bm       Bm       Bm        Bm        E        E        G        G
e--------2--------2--------2---------2---------0--------0--------2--------2
B--------3--------3--------3---------3---------0--------0--------2--------2
G--------4--------4--------4---------4---------1--------1--------x--------x
D--------4--------4--------4---------4---------2--------2--------x--------x
A----2---2--------2----2---2---------2---------x----2---x--------2----2---2
E--------2----2---2--------2----2----2----0----x--------x----3---3--------3

E-adeva-rat,   e-adeva-                       rat ca sunt si     prea batrân sa plec.
            D       D       D        D        A       A       G       G       D       D
    e-------2-------2-------2--------2--------0-------0-------2-------2-------2-------2
    B-------3-------3-------3--------3--------3-------3-------2-------2-------3-------3
    G-------2-------2-------2--------2--------3-------3-------0-------x-------2-------2
    D---0---x-------x---0---x--------x--------3-------3-------0-------x---0---x-------x
    A-------x---0---x-------x---0----x---0----x-------x-------2---2---2-------x---0---x
    E-------x-------x-------x--------x--------x---0---x---3---3-------3-------x-------x

         Prea  bat-rân  sa  plec
         A         G        D        D        D        D
e--------0---------2--------2--------2--------2--------2
B--------3---------2--------3--------3--------3--------3
G--------3---------x--------2--------2--------2--------2
D--------3---------x----0---0--------x----0---0--------x
A----0---x---------2--------x----0---x--------x----0---x
E--------x----3----3--------x--------x--------x--------x

1. Dragi straini,

           D                              G
Tara-i fru-moasa, d-aia vrem sa vina stra-inii sa o vada
      A                            G              D
Sa se plimbe-n lung si-n lat pe… e-ra sa zic auto-strada.
D                                       G
Deci veniti, dragi straini, la noi e la fel ca în Seychelles,
      A                           G        D
Adica ce vreau sa zic e c-o sa va coste la fel.

A
Aici, aici, aici...

          D                           A
R: E tara mea, e blocu’ meu, e strada mea cu-n singur bec,
  Bm                        E               G
E locu-n care viata-ntreaga vreau sa îmi pe-trec.
        D            A              G              D
E-adeva-rat, e-adeva-rat ca sunt si prea batrân sa plec.
A   -   G   -   D
Prea ba-trân sa plec.


2. Dragi straini,
Veniti acum, pe bune, ar trebui sa va grabiti
Ca sa prindeti muntii acu’ cât mai sunt împaduriti.
Vizitati-ne mai repede, bucurati-va de oferta,
Veniti acu’ cât mai avem un pic de Vama Veche si Delta.

REFREN

3. Dragi straini,
La banii nostri, câteva sute de tone de aur nu mai conteaza,
Asa ca mai bine va dam voua auru’, ca voi stiti cum se exploateaza.
Si oricum e poluare, asa ca sa nu vorbim cu ura.
Ce dac-o sa fie la Rosia Montana un pic mai multa cianura?

REFREN

4. Dragi straini,
Deci veniti, faceti ce vreti, ca noi n-o sa ne suparam,
Da’ sa stiti ca exista un lucru pe care n-o sa-l acceptam.
Asa ca va avertizam, va spunem chiar cu vehementa:
N-o sa lasam un strain sa se bage-n sistemul medical de urgenta!
Chiar daca el l-a conceput,
Chiar daca el l-a pus pe picioare.
Asta nu înseamna ca trebuie sa-l lasam în continuare.
O, nu! De ce? Pai pentru ca aici

R: E tara mea, e blocu’ meu, e strada mea cu-n singur bec,
E locu-n care viata-ntreaga vreau sa îmi petrec.
E-adevarat, e-adevarat ca sunt sï prea batrân sa plec.
Prea batrân sa plec.


*** Pentru a intelege mai bine bataia si/sau ritmul am incercat sa schitez sus.
*** Daca tot aveti probleme in ceea ce priveste bataia ascultati/priviti clipul pe youtube: 
http://www.youtube.com/watch?v=Cons-XqvWrM&feature=related 
*** E prima mea tabulatura urcata pe Tabulaturi.ro sper sa va placa, spor!

Andrei Prãdan
6Ld5REUUAAAAAA1PBEDya2BDGnf5rYKeKnmYm4Cz
6d2bda196d60a74ea6fc10980ed40a03