The MOOoD - Back in the Shop

e|----7-7-7----7-7-7-------------------------------|
B|----8-8-8----7-7-7-------------------------------|
G|----9-9-9----8-8-8-------------------------------|
D|----9-9-9----9-9-9-------------------------------|
A|----7-7-7----9-9-9-------------------------------|
E|----7-7-7----7-7-7-------------------------------|

      Em(MI)   Bm(Si)

****Partea de intro se repeta pe tot parcursul versurilor***
     

           Em                      
Back in the shop, back in the shop, back in the shop, you say
            BM
And today will be like yesterday
On the run, on the run for the glossy things
And the match for those little fancy heels

I will try, I will try, I will try to hide
But you will find me and ask me: "Honey, ain't this nice?"
And I say and I say this is not ok 
And you know you gotta see the way

****Refren*****
e|------------------------------------------------------|
B|-9-9-9-9-9----9/12-12-12-12---------------------------| 
G|-9-9-9-9-9----9/12-12-12-12----9-9-9-9--9-7-5-4-------|  X5
D|-7-7-7-7-7----7/10-10-10-10----9-9-9-9--9-7-5-4-------|
A|-------------------------------7-7-7-7--7-5-3-2-------|
E|------------------------------------------------------|



e|--------------------------------------------------|
B|--14-14-------15-15-------------------------------|
G|--14-14-X8----15-15-X8----------------------------|
D|--12-12-------13-13-------------------------------|
A|--------------------------------------------------|
E|--------------------------------------------------|


Gotta see the way x3

"Follow me, follow me, follow me" you say
And I'll follow you 'cause I've got no escape
Have to say, have to say that you've got good taste 
Yes darling, you look perfect in that dress

I will try, I will try, I will try to hide
But you will find me and ask me: "Honey, ain't this nice?"
And I say and I say this is not ok 
And you know you gotta see the way
***REFREN****


Gotta see the way x3

I'll be around, I'll be around you today
And I'll bring you flowers

***Aceleasi acorduri ca si versul doar ca se schimba ritmul*******

Be around, be around, be around today
And I'll bring you expensive flowers 


Get myself away, gotta see the way

ENDING:
e|---------------------------------------------------|
B|---9---11-11--12-12-12---14-14-14------------------|
G|---9---11-11--12-12-12---14-14-14------------------|
D|---7---9--9---10-10-10---12-12-12------------------|
A|---------------------------------------------------|
E|---------------------------------------------------|


e|--------------------------------------------------|
B|---9---11-11--12-12-12----------------------------|
G|---9---11-11--12-12-12---12-----------------------|
D|---7---9--9---10-10-10---12-----------------------|
A|-------------------------10-----------------------|
E|--------------------------------------------------|

e|---------------------------------------------------|
B|---9---11-11--12-12-12---14-14-14----15-15---------|
G|---9---11-11--12-12-12---14-14-14----15-15--X8-----|
D|---7---9--9---10-10-10---12-12-12----13-13---------|
A|---------------------------------------------------|
E|---------------------------------------------------|
    ***Cele 3 parti de mai sus se canta de 2 ori iar ultima, o data la final**
e|-----------------------------------------------------|
B|---9---11-11--12-12-12---14-14-14----15-15-----------|
G|---9---11-11--12-12-12---14-14-14----15-15--X8--12-14|
D|---7---9--9---10-10-10---12-12-12----13-13------12-14|
A|------------------------------------------------10-12|
E|-----------------------------------------------------|
f6bb6ed2852b2289e2057470574d23ff
6Ld5REUUAAAAAA1PBEDya2BDGnf5rYKeKnmYm4Cz