The MOOoD - Barracks

  • (1 voturi)
  • Contribuție:  Dani
Tabulatura este facuta dupa o versiune live: http://www.youtube.com/watch?v=0NdJKjQTyI4

INTRO:
 
E --14--12-12-12----      E --14-14-14-14-12-12-12-12----
B --14--12-12-12---- X2   B --14-14-14-14-12-12-12-12---- x4 (si pe prima strofa)
G --14--12-12-12----      G --14-14-14-14-12-12-12-12----
D ------------------      D -----------------------------
A ------------------      A -----------------------------   (clean)
E ------------------      E -----------------------------

PRE-REFREN/POST-REFREN:

E -2--2--2--2----5--5--5--5---
B -2--2--2--2----5--5--5--5---
G -3--3--3--3----6--6--6--6--- X2 (distorsie)
D -4--4--4--4----7--7--7--7---
A -4--4--4--4----7--7--7--7---
E -2--2--2--2----5--5--5--5---

REFREN:

E -2-2-2-2-5-5-5-5----
B -2-2-2-2-5-5-5-5----
G -3-3-3-3-6-6-6-6---- x4 (distorsie)
D -4-4-4-4-7-7-7-7----
A -4-4-4-4-7-7-7-7----
E -2-2-2-2-5-5-5-5----

Strofa 2: 

E -2-2-2-2-5-5-5-5----
B -2-2-2-2-5-5-5-5----
G -3-3-3-3-6-6-6-6---- x4 (clean)
D -4-4-4-4-7-7-7-7----
A -4-4-4-4-7-7-7-7----
E -2-2-2-2-5-5-5-5----

SOLO:
E -------------------------------     
B -------------------------------     
G -------------------------------     
D --------7--9-9---------9--7-7-- X6  
A --7--9------------7--9--------- 
E ------------------------------- 
    
E -------------------------------------------------------------------------   -7-5-2-
B -------------------------------------------------------------------------   -7-5-2-
G ------------------- -----------------------------------------------------   -9-6-3-
D ------7--9--10--9--7--9--7---7--7-----------7--9--10--9--7--9--7---7-7---X2 -9-7-4-
A -7--9----------------------9--9--9-----7--9----------------------9-----9-   -7-7-4-
E -------------------------------------------------------------------------   -7-5-2-
788038feb9e8fdf2b331ac357e20e4b1
6Ld5REUUAAAAAA1PBEDya2BDGnf5rYKeKnmYm4Cz