The MOOoD - Two Times

  • (1 voturi)
  • Contribuție:  Dani
E  ----------------------                            
B  ----------------------
G  -6-6-6-6-9-9-8-8------
D  -6-6-6-6-9-9-8-8------   X2
A  -4-4-4-4-7-7-6-6------
E  ---------------------- 

E -------------------
B -------------------
G -6-------2--------- 
D -6--x8---2--X8-----  X2                       }INTRO
A -4-------0---------
E -------------------

E ---------------------------------
B ---------------------------------
G -6-6-6-6-2-2-2-2---------4-4-5-5-
D -6-6-6-6-2-2-2-2-6-6-6-6-4-4-5-5-  X2
A -4-4-4-4-0-0-0-0-6-6-6-6-2-2-3-3-
E -----------------4-4-4-4---------

VERS :

E --------------------------
B --------------------------
G ---6-----4-----2----4-----    x4
D --6-----6-----2----4------
A -4-----4-----0----2-------
E --------------------------

PRE-REFREN (partea cu "and then you say")

E ------
B ------
G ---6--  X16
D ---6-- 
A ---4--
E ------

REFREN

E ---------------------------------
B ---------------------------------
G -6-6-6-6-2-2-2-2---------4-4-5-5-
D -6-6-6-6-2-2-2-2-6-6-6-6-4-4-5-5-  X4
A -4-4-4-4-0-0-0-0-6-6-6-6-2-2-3-3-
E -----------------4-4-4-4---------
9f0052d0a8bf5ed65c6afee73f6f2861
6Ld5REUUAAAAAA1PBEDya2BDGnf5rYKeKnmYm4Cz