Timpuri Noi - Mistretul

  • (10 voturi)
  • Contribuție:  anonim120
intro bas:

G|------------------------------------------------------------------|
D|------------------------------------------------------------------|
A|-----------------------------------10---------12---12------10-----|
E|--12---12-10-12-12-10-7---10--7-8-------8-10---------10h12-----12-|

Versuri:

     Em              
     Vazut, placut
  Am7   Bm7 
     Mistretul galben
     Ochit, lovit
     Copita-i sparta
     De trei zile e urmarit 
     Prin hatisuri a ostenit

Cat as vrea 
Sa-i vad nevasta
Inchisa de-un an
La zoo Baneasa

C9
Voi fugi, voi fugi
          D9          
Pe calea ferata
C9
Mi-as da copita
          D9   
S-o stiu salvata

Ref:
 
Em
Fuga, fuga prin porumb
Am7                   Bm7                
Cat de greu e sa prinzi mistretul
Fuga, fuga prin porumb
Uuuu
  
solo: chitara ( +vioara )
 
e|--------------------------------------------|
B|----7-8-10-8-7-8--7---------7---------------|
G|--9-------------------7-------9-------7-9---|
D|------------------------9----------10-----7-|
A|--------------------------------------------|
E|--------------------------------------------|

e|-------------------------------------------------|
B|---------------------7-8-10-8-7-8--7---------7---|
G|-------------------9-------------------7-------9-|
D|-----------------------------------------9-------|
A|-10-9-10-9-10-7----------------------------------|
E|-------------------------------------------------|

e|------------------------------------------------|
B|--7-8-10-10/12-10--8-7-8-7-------8-7--10-8------|
G|---------------------------10---------------9-7-|
D|------------------------------------------------|
A|------------------------------------------------|
E|------------------------------------------------|

e|-----------------------------------------10\|
B|--------------------8-7--10-8---8--10-12~----|
G|----------------7-------------9--------------|
D|-9-7---5-7-5-7/9-----------------------------|
A|---------------------------------------------|
E|---------------------------------------------|

Ref:

solo bas

Ref
6Ld5REUUAAAAAA1PBEDya2BDGnf5rYKeKnmYm4Cz
3023afd2f5993fa50a73cd91552ec65f