Timpuri Noi - Mistretul

Solourile (si versurile) sunt luate de la Florin Serban (bravos) dar 
acordurile parca-mi suna mai bine asa (merg si acordurile standard):


	Em	Bm	Am7	D 
e|------12------7-------5-----7------------------------|
B|------12------7-------5-----7------------------------|
G|------12------7-------5-----7------------------------|
D|------X-------X-------X-----X------------------------|
A|------X-------X-------X-----5------------------------|
E|------12------7-------5-----X------------------------|

Solo (Florin Serban)

G|------------------------------------------------------------------|
D|------------------------------------------------------------------|
A|-----------------------------------10---------12---12------10-----|
E|--12---12-10-12-12-10-7---10--7-8-------8-10---------10h12-----12-|

Versuri:

     Em        Bm              
     Vazut, placut
Am7   D 
     Mistretul galben
     Ochit, lovit
     Copita-i sparta
     De trei zile e urmarit 
     Prin hatisuri a ostenit

Cat as vrea 
Sa-i vad nevasta
Inchisa de-un an
La zoo Baneasa

Am7
Voi fugi, voi fugi
            D          
Pe calea ferata
Am7
Mi-as da copita
            D   
S-o stiu salvata

Ref:
 
Em                  Bm              
Fuga, fuga prin porumb
Am7                   D                
Cat de greu e sa prinzi mistretul
Fuga, fuga prin porumb
Uuuu
  


solo: chitara ( +vioara )
 
e|--------------------------------------------|
B|----7-8-10-8-7-8--7---------7---------------|
G|--9-------------------7-------9-------7-9---|
D|------------------------9----------10-----7-|
A|--------------------------------------------|
E|--------------------------------------------|

e|-------------------------------------------------|
B|---------------------7-8-10-8-7-8--7---------7---|
G|-------------------9-------------------7-------9-|
D|-----------------------------------------9-------|
A|-10-9-10-9-10-7----------------------------------|
E|-------------------------------------------------|

e|------------------------------------------------|
B|--7-8-10-10/12-10--8-7-8-7-------8-7--10-8------|
G|---------------------------10---------------9-7-|
D|------------------------------------------------|
A|------------------------------------------------|
E|------------------------------------------------|

e|-----------------------------------------10\|
B|--------------------8-7--10-8---8--10-12~----|
G|----------------7-------------9--------------|
D|-9-7---5-7-5-7/9-----------------------------|
A|---------------------------------------------|
E|---------------------------------------------|

Ref:

solo bas

Ref
6Ld5REUUAAAAAA1PBEDya2BDGnf5rYKeKnmYm4Cz
0697f57b9ab90bae9cba3d875b76553c