Timpuri Noi - Namol

  • Contribuție:  Wlad
- slide
^- bend
h- hammer-on

Riff
e|------------------------------------------------------------------------------|
B|------------------------------------------------------------------------------|
G|------------------------------------------------------------------------------|
D|------------------------------------------------------------------------------|
A|-------------7--5-------------5--------------7--5-----------5-----------------|
E|---12�--0--------6-5-3---0-----7-6-5-3---0-------6-5-3---0---7-6-5-----------|


Partea dintre Refren si Riff (nu stiu cum se numeste)
e|-----------------------------------------------------|
B|-----------------------------------------------------|
G|-----------------------------------------------------|
D|-----------------------------------------------------|
A|---7/8--7-7h8-5----7/8--7-7h8-5----7/8--7-7h8-5------|
E|-----------------------------------------------------|

Partea dintre Refren si Solo (nici asta nu stiu cum se numeste)
e|-------------------------------------------------------------------|
B|-------------------------------------------------------------------|
G|-------------------------------------------------------------------|
D|-------------------------------------------------------------------|
A|--------7^-----7^-----7-8-5--------7^-----7^-----7-8-5-------------|
E|----0-0----0-0----0-0----------0-0----0-0----0-0-------------------|
6Ld5REUUAAAAAA1PBEDya2BDGnf5rYKeKnmYm4Cz
b1738c393261463de0d74d44b59d40ba