Timpuri Noi - Tata

Merge pe doua acustice

una face asa (bassul)
                                                                          
E||--------------------------|------------------------|------------------|
B||--------------------------|------------------------|------------------|
G||--------------------------|----------------1--1----|------------------|
D||--------1-----------1-----|--------3-------3--3----|------------------|
A||-----3-----3-----1-----1--|-----3-----3----3--3----|------------------|
E||--4-----------3-----------|--1-------------1--1----|------------------|


                    
si cealalta asa

           F       Am7             D          Dm
E||--------------------------|----------------1--1----|------------------|
B||--------1-----------1-----|--------3-------3--3----|------------------|
G||-----2-----2-----0-----0--|-----2-----2----2--2----|------------------|
D||--3-----------2-----------|--0-------------0--0----|------------------|
A||--------------------------|------------------------|------------------|
E||--------------------------|------------------------|------------------|


daca mai e si un al treilea cu o chitara

cand vine capat de vers pe Dm poate face odata cu chitara a doua, Dm dar asa x57765
6Ld5REUUAAAAAA1PBEDya2BDGnf5rYKeKnmYm4Cz
30dfe941186f0a28744adddac6a84e4b