Timpuri Noi - Tata (bass)

  • (1 voturi)
  • Contribuție:  vali22293
Sper ca asta e varianta buna, io am incercat-o si suna destul de bine


G|------9--12---------7--12--------9-----14------------------9--12---------7|
D|--10---------10--9---------9--7-----7----------14------10---------10--9---|
A|-------------------------------------------12------12---------------------|
E|--------------------------------------------------------------------------|


G|--12--------9-----14-----------------------12---------7--12|
D|------9--7-----7-----------------------14------10--9-------|
A|---------------------------12--14--15----------------------|
E|-----------------------------------------------------------|


G|--------9-----14------------------9--12---------7--12--------9-----14------|
D|--9--7-----7----------14------10---------10--9---------9--7-----7----------|
A|----------------12------12-------------------------------------------------|
E|---------------------------------------------------------------------------|
6Ld5REUUAAAAAA1PBEDya2BDGnf5rYKeKnmYm4Cz
bea69f0da75a88cb76db9ac304d84cd4