Timpuri Noi - Vecina

  • (3 voturi)
  • Contribuție:  anonime
Riff1
e|---7-7---7-5--------------4----7-7---7-5--------------4---4-----|
B|-------7-----7--7-7---7-5---5------7-----7--7-7---7-5---5---5---|
G|--------------------7---------------------------7---------------|
D|----------------------------------------------------------------|
A|----------------------------------------------------------------|
E|----------------------------------------------------------------|

Riff2
e|----------------------------------------------------------------|
B|-----7-----7----------------------------------------------------|
G|-------9-----9--------------------------------------------------|
D|---9-----9------------------------------------------------------|
A|----------------------------------------------------------------|
E|----------------------------------------------------------------|
4e8548c7fe56c2ff7250e5185a9846b4