Titi - Budinca

  • Contribuție:  Titi
Intro:

   Am               E                 Am               E
e-|---------0----------------0----------------0----------------0------
B-|-----1-------1--------0-------0--------1-------1--------0-------0--
G-|---2---2---2---2----1---1---1---1----2---2---2---2----1---1---1---1
D-|-------------------------------------------------------------------
A-|-0---------------------------------0-------------------------------
E-|-----------------0----------------------------------0--------------



   Dm               Am                G                Am
e-|---------1----------------0----------------3----------------0------
B-|-----3-------3--------1-------1--------3-------3--------1-------1--
G-|---2---2---2---2----2---2---2---2----0---0---0---0----2---2---2---2
D-|-0-----------------------------------------------------------------
A-|-----------------0----------------------------------0--------------
E-|-----------------------------------3-------------------------------


    E               Am                E                Am
e-|---------0----------------0----------------0----------------0------
B-|-----0-------0--------1-------1--------0-------0--------1-------1--
G-|---1---1---1---1----2---2---2---2----1---1---1---1----2---2---2---2
D-|-------------------------------------------------------------------
A-|-----------------0----------------------------------0--------------
E-|-0---------------------------------0-------------------------------


  Dm         Am
A fost odata o budinca
G         Am 
O budinca plictisita
E           Am
O budinca...
E           Am
O budinca...

Intr-o zi ea a plecat
A plecat intr-un alt sat
O budinca...o budinca...

Si acolo a gasit
Ceva nemaipomenit
O budinca...o budinca...

A gasit o ciocolata
Care era putin beata
O budinca...o budinca...

Ciocolata ii placea
Simtea ca se-ndragostea
O budinca...o budinca...

In scurt timp n-a mai contat
Repede s-au asortat
O budinca...o budinca...

Nu conta unde erau
Multa dragoste faceau
O budinca...o budinca...

In padure-s veverite
In Kaufland sunt si seminte
O budinca...o budinca...

In bar cu berea pe masa
In camin nu le mai pasa
O budinca...o budinca...

La mare-n apus de soare
La munte cand e frig tare
O budinca...o budinca...

Covoru lilla si pufos
In botanic ar fi frumos
O budinca...o budinca...

In cort hainele sunt ude
Concertu nu se aude
O budinca...o budinca...

Si acasa la Cioco
Go away dincolo
O budinca...o budinca...

Dupa-un timp cioco-a venit
Cheita de bere-a daruit
O budinca...o budinca...

Budinca a acceptat
Uite-asa ei s-au luat
O budinca...o budinca...

Asteapta sa aiba-odata
O budinca asortata
O budinca...o budinca...

De-acu nu mai povestesc
Caci oricum ei se iubesc
O budinca...o budinca...
O budinca...o budinca...


   Dm               Am                G                Am
e-|---------1----------------0----------------3----------------0------
B-|-----3-------3--------1-------1--------3-------3--------1-------1--
G-|---2---2---2---2----2---2---2---2----0---0---0---0----2---2---2---2
D-|-0-----------------------------------------------------------------
A-|-----------------0----------------------------------0--------------
E-|-----------------------------------3-------------------------------


    E               Am                E                Am
e-|---------0----------------0----------------0----------------0------
B-|-----0-------0--------1-------1--------0-------0--------1-------1--
G-|---1---1---1---1----2---2---2---2----1---1---1---1----2---2---2---2
D-|-------------------------------------------------------------------
A-|-----------------0----------------------------------0--------------
E-|-0---------------------------------0-------------------------------
2cf3bcc4fbdaba7b60987d4747753d96
6Ld5REUUAAAAAA1PBEDya2BDGnf5rYKeKnmYm4Cz