Toulouse Lautrec - Domino

  • Contribuție:  Serjioo
  • Ultima actualizare: 05.02.2020
-----Structura piesa------
Intro X3
Riff de bridge X2
Strofa X2
Refren
Riff de bridge X4
Strofa X2
Refren
Riff de bridge X4
Solo (netabulat dar merge in linie cu rifful de bridge)
Refren X2
---------------------------

Intro 
e|---------------------------|-----------------------|-----------------------|
B|--10--10--10-10-10-8-10-8--|-----------------------|-----------------------|
G|---------------------------|--7h9--9--9-9-9-7-9-7--|--5h7--7--7-7-7-5-7-5--|
D|---------------------------|-----------------------|-----------------------|
A|---------------------------|-----------------------|-----------------------|
E|---------------------------|-----------------------|-----------------------|
            A5                           E5                     D5           

e|-----------------------|---------------------|-----------------------|--
B|-----------------------|---------------------|-----------------------|--
G|-----------------------|---------------------|-----------------------|--
D|--5h7--7--7-7-----5----|------------------5--|--5h7--7--7-7-7--7--7--|--
A|--------------5-7------|--5h7--7--7-7-5-7----|-----------------------|--
E|-----------------------|---------------------|-----------------------|--
           A5                     E5                      A5

Riff de bridge
e|---------------------------------|--
B|-------------------5------5------|--
G|-------------5--------7v-----7v--|--
D|--5--7-7-7-7---7v----------------|--
A|---------------------------------|--
E|---------------------------------|--

Aici ritmul este pe A5 si C5, ascultati piesa pentru schimb.

Strofa 
A5 C5 G5 D5

Refren
(Chitara ritm canta cu o octava mai jos ultimele 3 acorduri)
D5 C5 E5 F5 G5
4584e1718da103fa1621a138fd7eb117