Toulouse Lautrec - Smecherul din tine

  • Contribuție:  Serjioo
  • Ultima actualizare: 25.04.2020
Am scos smecherul din mine si va prezint tabulatura completa pentru aceasta piesa. Enjoy!

-----Structura piesa------
Intro    > Dupa refren 0
Strofa 1
Refren 1 > Dupa refren 1
Strofa 2 
Refren 2 > Dupa refren 2
Refren 3 
Bridge
Refren 4
End
---------------------------
CHITARA RITM
Intro/Bridge 
Alternativ: Am C (fara coarda E si A) si D la final

Strofa/Dupa refren 0/1/2
Am C D

Refren 
F5 D5 A5 G5 

G5 G5 G5 G5 F5 D5 A5 G5 
Nu nu nu nu nu... 
----------------------------
CHITARA SOLO
Dupa refren 0/1/2  
E|-------------------------------------|--
B|--15-13-15-13-15---------------------|--
G|--------------------14--12h14----14--|--X
D|-------------------------------------|--3
A|-------------------------------------|--
E|-------------------------------------|--

E|----------------------------------|--
B|--15-13-15-13---------------------|--
G|---------------14--14--12---------|--
D|---------------------------14--12-|--
A|----------------------------------|--
E|----------------------------------|--

E|----------------------------------------------|--
B|----------------------------------------------|--
G|--12--14--14--14--14--12--14--14--14--14--14--|--
D|----------------------------------------------|--
A|----------------------------------------------|--
E|----------------------------------------------|--

E|---------------------------------|--
B|---------------------------------|--
G|--12--14--12---------------------|--
D|--------------14--12-------------|--
A|----------------------15----12~--|--
E|---------------------------------|--

Strofa
E|--8---8---10--|--12--12--10--|--
B|--10--10--10--|--10--10--10--|--
G|--------------|--------------|--X
D|--------------|--------------|--3
A|--------------|--------------|--
E|--------------|--------------|--

E|---------------------|--
B|--8h10--8------------|--
G|-----------9---------|--
D|--------------10--7--|--
A|---------------------|--
E|---------------------|--

Refren                           X2              
E|---------------------|----------------------|--
B|--8h10--10--10-10-10-|-8-8h10--10-10-10-10--|--
G|---------------------|----------------------|--
D|---------------------|----------------------|--
A|---------------------|----------------------|--
E|---------------------|----------------------|--

   Coda  prima data X1         a doua X1
E|--------------------------|-----------|--
B|--10-9-8-8-8h10-8---------|--8--8h10--|--
G|-------------------9------|-----------|--
D|----------------------10--|-----------|--
A|--------------------------|-----------|--
E|--------------------------|-----------|--

Bridge   
   Doar prima data            restul
E|-------------------|-----------------------|--
B|-------------------|-----------------------|--
G|------9--7---------|----------9--7---------|--
D|---7--------10--7--|-7--7--7--------10--7--|--
A|-------------------|-----------------------|--
E|-------------------|-----------------------|--

End pe Am
2d76acb82a5d883671ddea871ca20955