Traian Ilea - Pusca si cureaua lata (intro)

Nu e o varianta foarte buna, dar suna bine!

|--------------------------|----------------------------|
|--------------------------|----------------------------|
|-------------2----0--0----|--3-3---3--3---2---0-0------|
|------3-3-3----3----------|-------------------------3--|
|--3-----------------------|----------------------------|
|--------------------------|----------------------------|

|--------------------------|-------------------|
|--------------------------|-------------------|
|-------------2-----0--0---|--3-3---2---0------|
|-----3-3-3-----3----------|---------------3---|
|--3-----------------------|-------------------|
|--------------------------|-------------------|

sau se poate cant si cu o octava mai sus:

|------1-1-1--5-1--3--3----|--6-6---6--6---5---3-3---1--|
|--1-----------------------|----------------------------|
|--------------------------|----------------------------|
|--------------------------|----------------------------|
|--------------------------|----------------------------|
|--------------------------|----------------------------|

|------1-1-1--5-1--3--3----|--6-6---5---3--1---|
|--1-----------------------|-------------------|
|--------------------------|-------------------|
|--------------------------|-------------------|
|--------------------------|-------------------|
|--------------------------|-------------------|

Have fun! :)

Transpunerile de pe acest site reprezintă viziunea personală a utilizatorilor asupra pieselor.
88cee32ecfaca77575fc5877c0c0b62f
f7e9d1d2-ebba-44ba-8198-e810bddf71a6