Travka - Ce noapte

  • (4 voturi)
  • Contribuție:  anonime
am sa incerc asa .....
[----------------------------------------------------------------------------]
[-15b15-13-12-13----------------------------13-15b-15----17-13-12-8----------]
[--------------------14------------------------------------------------------]
[----------------------------5-7--7-9-9b9------------------------------------]
[--------------------------7-----7-------------------------------------------]
[------------------------5---------------------------------------------------]

si asculta melodia calumea sa poti face soloul bn

sorry
[-------------------------------------------------------------------------------------------------------------------]
[-15b15-13-12-13--------------------------------------------------------------------------13-15b-15----17-13-12-8---]
[--------------------14---------------------------------------------------------------------------------------------]
[----------------------------5-7--7-9-9b9-------12-10-9-9-10-10---12 10-9-9h10-7------------------------------------]
[--------------------------7-----7----------------------------------------------------------------------------------]
[------------------------5------------------------------------------------------------------------------------------]
6Ld5REUUAAAAAA1PBEDya2BDGnf5rYKeKnmYm4Cz
3d3b453566a1c34959e05efb6f352869