Travka - Zgarba

  • (4 voturi)
  • Contribuție:  generalDona
  • Ultima actualizare: 31.01.2009
intro
  |----------------------------------------------
  |--4-4-x-4-4-5-5-5-5----4-4x-4-4--7-7-7-7------
  |--4-4-x-4-4-4-4-4-4----4-4x-4-4---------------  
  |--6-6-x-6-6------------6-6x-6-6---------------
  |--6-6-x-6-6------------6-6x-6-6--------------- 
  |----------------------------------------------


  intro vers

  |---------------------------
  |---------------------------
  |---------------------------
  |---------------------------
  |---------------------------
  |--3--2--1----0-------------

  Vers chitara care se aude pe fundal

  |-------------------------------------------
  |-------------------------------------------
  |-------------------------0.----------------
  |----------6-5~------------------------6-5~- ... si tot asa
  |------2--------------2------------2--------
  |--4---------------4-----------4------------

 vers chitara principala

  |--------------------------------------
  |--3-4--4--4----3-3-3-4---4-4----------
  |--3-3--3--3----3-3-3-3---3-3----------
  |--5----5--5----5-5-5-----5-5----------
  |--5----5--5----5-5-5-----5-5----------
  |--------------------------------------

  Refren 1

  |------------------------------------------
  |--4-4---5-5--4h5-4----4-4---5-5--4h5-4----
  |--4-4-----------------4-4-----------------
  |--6-6-----------------6-6-----------------
  |--6-6-----------------6-6----------------- 
  |------------------------------------------
 
 Refren 2 ( singura parte din tab de care nu sunt sigur) cu distors


  |-----------------------------------------------------------------
  |-----------------------------------------------------------------
  |-----------------------------------------------------------------
  |-----------------------------------------------------------------
  |--6--6-6-6--6-6-----2--2-2-2----5--5-5-5---9-9-9-9-9-------------
  |--4--4-4-4--4-4-----0--0-0-0----3--3-3-3---7-7-7-7-7-------------

 Asta e. Tabu e complet si corect. neintelegeri?... 
trimiteti mesaje si va
 lamuresc
6Ld5REUUAAAAAA1PBEDya2BDGnf5rYKeKnmYm4Cz
8416b3984779842f75de87e1d09039b8