Tudor Gheorghe - Valtul rozelor

TEMPO DE VALS
  
[INTRO]

  D
   
e------2-2------2-2-----2-2------------2-2-------------
B------3-3------3-3-----3-3------------3-3-------------
G------------------------------------------------------
D---0----------------0--------------0------------------ 
A------------0----------------0-2-4--------------------
E------------------------------------------------------

   Corzile se ciupesc in felul urmator :

   [_Vers_1_]

   D 
e------2-2------2-2-----2-2-------2-2------2-2---------
B------3-3------3-3-----3-3-------3-3------3-3---------
G------------------------------------------------------
D---0----------------0------------------0--------------
A------------0------------------0---------------0-2-4--
E------------------------------------------------------

  [_Vers_2_]

   D                                      A 

e------2-2------2-2-----2-2------2-2----0-0-------------
B------3-3------3-3-----3-3------3-3----2-2-------------
G-------------------------------------------------------
D---0----------------0----------------2-------------0-2-
A------------0----------------0-----------------0-4----- 
E-------------------------------------------------------

   [_Vers_3_]

A                                    G       D
e------0-0------0-0---------3-3------3-3-----2-2----2-2----2-2--
B------2-2------2-2---------3-3------3-3-----3-3----3-3----3-3--
G---------------------------------------------------------------
D------------------------------------------0-------------0------
A------------0------------------------------------0-------------
E-----------------------3---------3-----------------------------

    [_Vers 4_]

   D               A                  D 

e------2-2------0-0-----0-0------2-2----2-2------2-2------------
B------3-3------2-2-----2-2------3-3----3-3------3-3------------
G--------------------------------------------------------------- 
D-------------2----------------0---------------0------------0--- 
A---0----------------0----------------0---------------0-2-4-----
E---------------------------------------------------------------
   
D
Pe verdea margine de sant
                     A
Crestea maciesul singuratic
            G         D
Dar vantul serii nebunatic
            A              D
Pofti-ntr-o zi pe flori la dans

Intai patrunse printre foi
Si le sopti cu voce lina
De dorului le spuse apoi
Si suspina cum se suspina
 
Albeata lor de trandafiri
Zambind prin roua primaverii
La mangaierile adierii
A tresarit cu dulci simtiri

Pareau naluci de carnaval
Cum se miscau catifelate
Gatite toate-n rochi de bal
De vantul serii sarutate
   
Scaldate-n razele de sus
Muiate in argintul lunii
S-au dat in bratele minciunii
Si rand pe rand prin vant s-au dus
  
Iar vantul tainic le soptea
Luandu-le pe fiecare
Si-un vals nebun se invartea
Un vals din ce in ce mai tare
6Ld5REUUAAAAAA1PBEDya2BDGnf5rYKeKnmYm4Cz
d61ac1e3347cf67975ff0522ed90b7cf