Urma - Cine iubeste si lasa (intro chitara)

Este din Am (LA minor)

Linia melodica principala (cred ca sunt doua chitari simultane)

-------------0--------------------------------|
------1---3-----3---1-----(1)--------------0--|
--2--------------------2------(2)---0---2-----|  x10
----------------------------------------------|
----------------------------------------------|
----------------------------------------------|


Linia melodica flaut/fluier: intra de la a 3-a repetare a liniei de mai sus

-------------0---------1---0-----------------0-------------------------|
------1---3-----3---1-----------------1---3-----3---1---------------0--|
--2-------------------------------2--------------------2-----0---2-----|
-----------------------------------------------------------------------|
-----------------------------------------------------------------------|
-----------------------------------------------------------------------|

Nu e varianta perfecta, dar sunt deschis la modificari! Spor!
007eb320c8e7a7f70098cf89e994f613
6Ld5REUUAAAAAA1PBEDya2BDGnf5rYKeKnmYm4Cz