Urma - In your arms

  • (2 voturi)
  • Contribuție:  TheFly
e-----9-----9-10-9----9--
b------------------------
g--11----11--------11----

verse: B F#7 F#7add11

All I need is a little rest to cool the brakes
I'm still looking for a red light
Can you take me in your arms and leave me there
Overtake me with a smile

chorus: Dm Fmaj7 Am C

e--------------------------
b--------------------------
g--------9--10--9------9---
d---7----------------7-----
a--------------------------
e--------------------------

I just feel I'm safe
In your arms
I just feel I'm safe

Searched your trace on open roads
No time to fall
Where the hell is my red light
Too much coffee in my blood
I'll need some more
Give me meanings for the road

I just feel I'm safe
In your arms
I just feel I'm safe

B: 224442
F#7: x44320
F#7add11: x44300
Dm: xx0231
Fmaj7: x33210
Am: x02210
C: 332010
6Ld5REUUAAAAAA1PBEDya2BDGnf5rYKeKnmYm4Cz
11c1e1a7bb9ecba8086a42e84b910948