Urma - Inner demon

  • (4 voturi)
  • Contribuție:  anonime
History: (12) - harmonics
          /5  - slide up to fret 5
          \5  - slide down to fret 5
          3'' - let it ring
          s   - slide
          p   - pull-off
          h   - hammer
         4b5r4- bend 4 to 5 and release back to 4
          b   - bend
          x   - blocked strumming or slapping


 Verse Mani:
e-----------------------------------------------------------------------
b-10-9------7--5--------------------------------------------------------
g-----------------------------------------------------------------------
d-----------------------------------------------------------------------
a-9--9------5--5--------------------------------------------------------
E-----------------------------------------------------------------------

 Verse Dan and background for solo:
e-----------------------------------------------------------------------
b-9h10-12---5h7p5--2-3--------------------------------------------------
g-----------------------------------------------------------------------
d-----------------------------------------------------------------------
a-9---------5------2----------------------------------------------------
E-----------------------------------------------------------------------

Solo
e-----------------------------------------------------------------------
b------10''-----------10-----------------------10''---------12---14-----
g-9-11------11'---9h11--13-11-9-11--------9-11------11''-/11--11---11''-
d----------------------------------11''---------------------------------
a-----------------------------------------------------------------------
E-----------------------------------------------------------------------

e-12-12-12-11--------------9-------12-12-12-11--------------------------
b-------------10''-9h10-12---10''--------------10''-12-12b13r12-10''----
g-----------------------------------------------------------------------
d-----------------------------------------------------------------------
a-----------------------------------------------------------------------
E-----------------------------------------------------------------------

e-------9---------------
b---12------------------
g-11--11-11------------- 4x
d-----------12'-11p9----
a-------------------11'-
E-----------------------

e-x--x--x--x-x-x--x--x-x-x-x-x-x-x-x-x-x-x--x--x--x-x-x--x--x-x-x-x-x-x-x-x-x--x--
b-12-12-12-x-x-10-10-x-x-x-9-9-9-x-x-7-7-12-12-12-x-x-10-10-x-x-x-9-9-9-x-x-10-10-
g-x--x--x--x-x-x--x--x-x-x-x-x-x-x-x-x-x-x--x--x--x-x-x--x--x-x-x-x-x-x-x-x-x--x--
d-x--x--x--x-x-x--x--x-x-x-x-x-x-x-x-x-x-x--x--x--x-x-x--x--x-x-x-x-x-x-x-x-x--x--
a---------------------------------------------------------------------------------
E---------------------------------------------------------------------------------

e-x--x--x--x-x-x--x--x-x-x-x-x-x-x-x-x-x-x-x-x-x-x-x-x-x-x-x-x-------
b-12-12-12-x-x-10-10-x-x-x-9-9-9-x-x-7-7-6-x-7-x-6-x-7-x-6-7-7b8r7''-
g-x--x--x--x-x-x--x--x-x-x-x-x-x-x-x-x-x-x-x-x-x-x-x-x-x-x-x-x-------
d-x--x--x--x-x-x--x--x-x-x-x-x-x-x-x-x-x-x-x-x-x-x-x-x-x-x-x-x-------
a--------------------------------------------------------------------
E--------------------------------------------------------------------

With chorus
e-------9---------------
b---12------------------
g-11--11-11--13'-xx11''- 4x
d-----------------------
a-----------------------
E-----------------------

Outro solo
e--------------------------------------------------------------------------
b----------10---12----------10-12-10----------10---12---14p12--12p10-14p10-
g-11x11x11x-------x11x11x11x--------x11x11x11x--------x------11------------
d--------------------------------------------------------------------------
a--------------------------------------------------------------------------
E--------------------------------------------------------------------------

e-12''----11''-------------------------12''----11''--------------------
b-----10''----10''-------10-12-14----------10''----10''12-12bbbbb13r12-
g-----------------11''-11--------11''----------------------------------
d----------------------------------------------------------------------
a----------------------------------------------------------------------
E----------------------------------------------------------------------

e------------------------------------------------
b------------------------------------------------
g------------------------------------------------
d-7h9xx9xx--7''---12---11''-7h9xx9xx--7''---12''-
a---------9-----9----9--------------9-----9------
E------------------------------------------------


e-------------------------------------------------------
b-------------------------------------------------------
g-------------------------------------------------------
d-----11'''12''11''12''11''12''11''12''11''12''11-------
a---9----9----------------------------------------12'''-
E-------------------------------------------------------

e-------9-------------------
b---12----------------------
g-11--11-11----------------- 2x
d-----------12'-11p9--------
a-------------------11''9''-
E---------------------------

e----------------------------------------------------------------------
b-10h12xx12xx10'''-10h12xx12xx10'-----10h12xx12xx10'''-----------------
g--------------------------------11''------------------13p11----------- 2x
d-----------------------------------------------------------x-14p11'''-
a----------------------------------------------------------------------
E----------------------------------------------------------------------

Lyrics : 

Have to feel, it's sort of a human need 
Stupid heart... 
Have to ask, keep surfing against my past 
It might heal 

Have to smile, there's someone in need outside 
I should give 
Have to trust, there's feeling beneath the dust 
Could be real 
Take the demons out of me 
Take your demons out of me 

Nobody guesses what I'm living 
When the time falls asleep 
Keep on dreaming on her lies and forget about the earthly sunset 
Of her eyes 

Solitude claimed my way 
Made me strong... 
Bless the loss, the grief and the friend I've lost 
Proved me wrong... 
Take the demons out of me 
Take your demons out of me 

My father is watching from the ceiling 
Holds me till I fall asleep 
I'm still dreaming of his smile 
Can't forget about the friendly sunshine 
Of his eyes 
And I cry from time to time 
And I lied and pretended that everything it's allright
3743757727fecc16263956a62a9feb45
6Ld5REUUAAAAAA1PBEDya2BDGnf5rYKeKnmYm4Cz