Urma - Refuse

  • (1 voturi)
  • Contribuție:  TheFly
intro:

e----------0-----
b--------7---7---
g----------------   repeat
d-----5----------
a---7------------
e-0--------------

e----------------
b--0-0---3-3-----
g----------------
d--1-1---1-1-----
a--3-3---3-3-----
e----------------

Emadd9

Refuse to build a stinking hole of compromises served in gold
Well, that's not me, that can't be me
Refuse to trade myself away, a day of fame for my own name
Well, that's not me, that can't be me

Emadd9 Cm

Feel alive, so I'll live alive
Until the end

Refuse to waste the child in me, the little spot left clean and free
Well, that's not me, that can't be me
Refuse to share the golden dreams of all the clowns entitled kings
Well, that's not me, that can't be me

Feel alive, so I'll live alive
Until the end

Emadd9: 022002
Cm: 335543
6Ld5REUUAAAAAA1PBEDya2BDGnf5rYKeKnmYm4Cz
b826d5ab415eb17fd2ee6cd70781eaf6