Urma - Terminus

Intro + strofa:

e|------1h3p1----------0------------0---------3----------
B|-------------3---------3---3--------3---3-----3--------
G|----2----------0----2----2------0-----0----4-----------
D|--0---------------3------------------------------------
A|-------------------------------3----------5------------
E|-------------------------------------------------------


e|------1h3p1----------0---------0---------3-------------
B|-------------3---------3---3-----3---3----3------------
G|----2----------0----2----2----0----0-------------------
D|--0---------------3------------------------------------
A|-----------------------------3---------2---------------
E|-------------------------------------------------------

Strofa:
Lazy night, you're here again
I've got nothing to say
Your shadow's kind to me and my trouble's fading away

No signs to point directions home
But I got to go now
Back
To my love

Bartender forgive me son
Can you show me the door? 
It seems I need a map
Cannot find the exit alone 

No signs to point directions out
But I got to go now
Back
To my love

Refren:
Dm		C9  F
One drink's all I need
G
I got to go
I'm not from this world

One more for the road
I need to know
Where's the end of this world 

Lady, please excuse me now
Can I play in your game? 
I lost my self esteem
In a bar where the drinks have no name

The sun is coming up
And I need to be on my way
Back
To my love

One drink's all I need
I got to go
I'm not from this world 

One more for the road
I need to know
Where's the end of thïs world
3cf33d4bdb6237ff84f2078c3b0ba657
6Ld5REUUAAAAAA1PBEDya2BDGnf5rYKeKnmYm4Cz