Urma - The simple things

  • (3 voturi)
  • Contribuție:  anonime
History: (12) - harmonics
          /5  - slide up to fret 5
          \5  - slide down to fret 5
          3'' - let it ring
          s   - slide
          p   - pull-off
          h   - hammer
         4b5r4- bend 4 to 5 and release back to 4
          b   - bend
          x   - blocked strumming or slapping

intro + verse : guitar 1
e---0------0-----------------
b---0------0-----------------
g---4------6-----------------
d-4s6----6s7-----------------
a----------0-----------------
E----------------------------
verse : guitar 2
e-------------------------0--
b-------------------------0--
g---1---1---1---1---1-1h2-2--
d-------------------------2--
a-0---0---0---0---0----------
E----------------------------
Guitar fill'in
e-(12)-----------------------
b------(7)-------------------
g----------------------------
d----------------------------
a----------------------------
E----------------------------

Chorus : guitar 1
e-0--2-----------------------
b-1--3-----------------------
g-0--2-----------------------
d-2--0-----------------------
a-3--------------------------
E-3--------------------------

Chorus : guitar 2
e----------------------------
b----------------------------
g-5--7-----------------------
d-2--4-----------------------
a-3--5-----------------------
E----------------------------


 # Sau varianta a 2-a #

Intro + verse : guitar 1
e---0------0-----------------
b---0------5-----------------
g---4------6-----------------
d-4s6----6s7-----------------
a----------0-----------------
E----------------------------
verse : guitar 2
e-------------------------0--
b-------------------------2--
g---1---1---1---1---1-1h2-2--
d-------------------------2--
a-0---0---0---0---0----------
E----------------------------
Guitar Fill'in
e-(12)-----------------------
b------(7)-------------------
g----------------------------
d----------------------------
a----------------------------
E----------------------------

Chorus : guitar 1
e-0--2-----------------------
b-1--3-----------------------
g-0--2-----------------------
d-2--4-----------------------
a-3--------------------------
E-3--------------------------

Chorus : guitar 2
e----------------------------
b----------------------------
g-5--7-----------------------
d-2--4-----------------------
a-3--5-----------------------
E----------------------------

LYRICS:

Can't get no sleep... 
I miss the colors in my dreams 
I stare at my bed.... 
And all I see is just an abandoned dream... 

And I miss...The simple things 

Can't get no rest... 
I miss you hiding at my chest 
I miss the little hand... 
Drawing silent circles on my fainth... 

And I miss...The simple things 

Can't get no joy... 
I miss you as my favourite toy 
I miss the touch...the smile 
And the nights when I said "hello I'm alive..." 

And I miss...The simple things
3a002fb857c11d82080394713e5870e1
6Ld5REUUAAAAAA1PBEDya2BDGnf5rYKeKnmYm4Cz