Urma - The simple things

intro/verse: E/A  A

Mani:

e---0---0-----0------(12)----------
b---0---0-----0---------------(7)---
g---x---x-----6---------------------
d---2-/-6-----7----------------------
a---0---0----------------------------
e--------------------------------------

Dan:

e----------------------------------------------
b----------------------------------------0-----
g--------1----1--1-----1---2----2---------2----
d-----------2--------2---------2---------------
a----2-----------------------------------------
e----------------------------------------------

Can't get no sleep
I miss the colors in my dreams
I stare at my bed
And all I see is just an abandoned dream

chorus: C D E A E A

And I miss...the simple things

Can't get no rest
I miss you hiding at my chest
I miss the little hand
Drawing silent circles on my faith

And I miss...the simple things

Can't get no joy
I miss you as my favorite toy
I miss the touch, the smile
And the nights when I said "Hello, I'm alive"

And I miss...the simple things


E/A: x06x00
A: xx7650
C: 332010
D: 554030
6Ld5REUUAAAAAA1PBEDya2BDGnf5rYKeKnmYm4Cz
28818970d2d5527614695989f63d1026